  0
SECTION
  2
HEADER
  9
$ACADVER
  1
AC1014
  9
$ACADMAINTVER
 70
               0
  9
$DWGCODEPAGE
  3
ANSI_932
  9
$INSBASE
 10
0.0
 20
0.0
 30
0.0
  9
$EXTMIN
 10
0.0
 20
0.0
 30
0.0
  9
$EXTMAX
 10
420.0
 20
297.0
 30
0.0
  9
$LIMMIN
 10
0.0
 20
0.0
  9
$LIMMAX
 10
420.0
 20
297.0
  9
$ORTHOMODE
 70
               0
  9
$REGENMODE
 70
               1
  9
$FILLMODE
 70
               1
  9
$QTEXTMODE
 70
               0
  9
$MIRRTEXT
 70
               1
  9
$DRAGMODE
 70
               2
  9
$LTSCALE
 40
1.0
  9
$OSMODE
 70
               0
  9
$ATTMODE
 70
               1
  9
$TEXTSIZE
 40
0.2
  9
$TRACEWID
 40
0.05
  9
$TEXTSTYLE
  7
Standard
  9
$CLAYER
  8
0
  9
$CELTYPE
  6
Continuous
  9
$CECOLOR
 62
             256
  9
$CELTSCALE
 40
1.0
  9
$DELOBJ
 70
               1
  9
$DISPSILH
 70
               0
  9
$DIMSCALE
 40
1.0
  9
$DIMASZ
 40
0.18
  9
$DIMEXO
 40
0.0625
  9
$DIMDLI
 40
0.38
  9
$DIMRND
 40
0.0
  9
$DIMDLE
 40
0.0
  9
$DIMEXE
 40
0.18
  9
$DIMTP
 40
0.0
  9
$DIMTM
 40
0.0
  9
$DIMTXT
 40
0.18
  9
$DIMCEN
 40
0.09
  9
$DIMTSZ
 40
0.0
  9
$DIMTOL
 70
               0
  9
$DIMLIM
 70
               0
  9
$DIMTIH
 70
               1
  9
$DIMTOH
 70
               1
  9
$DIMSE1
 70
               0
  9
$DIMSE2
 70
               0
  9
$DIMTAD
 70
               0
  9
$DIMZIN
 70
               0
  9
$DIMBLK
  1

  9
$DIMASO
 70
               1
  9
$DIMSHO
 70
               1
  9
$DIMPOST
  1

  9
$DIMAPOST
  1

  9
$DIMALT
 70
               0
  9
$DIMALTD
 70
               2
  9
$DIMALTF
 40
25.399999999999999
  9
$DIMLFAC
 40
1.0
  9
$DIMTOFL
 70
               0
  9
$DIMTVP
 40
0.0
  9
$DIMTIX
 70
               0
  9
$DIMSOXD
 70
               0
  9
$DIMSAH
 70
               0
  9
$DIMBLK1
  1

  9
$DIMBLK2
  1

  9
$DIMSTYLE
  2
Standard
  9
$DIMCLRD
 70
               0
  9
$DIMCLRE
 70
               0
  9
$DIMCLRT
 70
               0
  9
$DIMTFAC
 40
1.0
  9
$DIMGAP
 40
0.09
  9
$DIMJUST
 70
               0
  9
$DIMSD1
 70
               0
  9
$DIMSD2
 70
               0
  9
$DIMTOLJ
 70
               1
  9
$DIMTZIN
 70
               0
  9
$DIMALTZ
 70
               0
  9
$DIMALTTZ
 70
               0
  9
$DIMFIT
 70
               3
  9
$DIMUPT
 70
               0
  9
$DIMUNIT
 70
               2
  9
$DIMDEC
 70
               4
  9
$DIMTDEC
 70
               4
  9
$DIMALTU
 70
               2
  9
$DIMALTTD
 70
               2
  9
$DIMTXSTY
  7
Standard
  9
$DIMAUNIT
 70
               0
  9
$LUNITS
 70
               2
  9
$LUPREC
 70
               4
  9
$SKETCHINC
 40
0.1
  9
$FILLETRAD
 40
0.0
  9
$AUNITS
 70
               0
  9
$AUPREC
 70
               0
  9
$MENU
  1
acad
  9
$ELEVATION
 40
0.0
  9
$PELEVATION
 40
0.0
  9
$THICKNESS
 40
0.0
  9
$LIMCHECK
 70
               0
  9
$BLIPMODE
 70
               1
  9
$CHAMFERA
 40
0.0
  9
$CHAMFERB
 40
0.0
  9
$CHAMFERC
 40
0.0
  9
$CHAMFERD
 40
0.0
  9
$SKPOLY
 70
               0
  9
$TDCREATE
 40
0.000000000
  9
$TDUPDATE
 40
0.000000000
  9
$TDINDWG
 40
0.0000000000
  9
$TDUSRTIMER
 40
0.0000000000
  9
$USRTIMER
 70
               1
  9
$ANGBASE
 50
0.0
  9
$ANGDIR
 70
               0
  9
$PDMODE
 70
               0
  9
$PDSIZE
 40
0.0
  9
$PLINEWID
 40
0.0
  9
$COORDS
 70
               0
  9
$SPLFRAME
 70
               0
  9
$SPLINETYPE
 70
               6
  9
$SPLINESEGS
 70
               8
  9
$ATTDIA
 70
               0
  9
$ATTREQ
 70
               1
  9
$HANDLING
 70
               1
  9
$HANDSEED
  5
48E
  9
$SURFTAB1
 70
               6
  9
$SURFTAB2
 70
               6
  9
$SURFTYPE
 70
               6
  9
$SURFU
 70
               6
  9
$SURFV
 70
               6
  9
$UCSNAME
  2

  9
$UCSORG
 10
0.0
 20
0.0
 30
0.0
  9
$UCSXDIR
 10
1.0
 20
0.0
 30
0.0
  9
$UCSYDIR
 10
0.0
 20
1.0
 30
0.0
  9
$PUCSNAME
  2

  9
$PUCSORG
 10
0.0
 20
0.0
 30
0.0
  9
$PUCSXDIR
 10
1.0
 20
0.0
 30
0.0
  9
$PUCSYDIR
 10
0.0
 20
1.0
 30
0.0
  9
$USERI1
 70
               0
  9
$USERI2
 70
               0
  9
$USERI3
 70
               0
  9
$USERI4
 70
               0
  9
$USERI5
 70
               0
  9
$USERR1
 40
0.0
  9
$USERR2
 40
0.0
  9
$USERR3
 40
0.0
  9
$USERR4
 40
0.0
  9
$USERR5
 40
0.0
  9
$WORLDVIEW
 70
               1
  9
$SHADEDGE
 70
               3
  9
$SHADEDIF
 70
              70
  9
$TILEMODE
 70
               1
  9
$MAXACTVP
 70
              16
  9
$PINSBASE
 10
0.0
 20
0.0
 30
0.0
  9
$PLIMCHECK
 70
               0
  9
$PEXTMIN
 10
1.0000000000000000E+20
 20
1.0000000000000000E+20
 30
1.0000000000000000E+20
  9
$PEXTMAX
 10
-1.0000000000000000E+20
 20
-1.0000000000000000E+20
 30
-1.0000000000000000E+20
  9
$PLIMMIN
 10
0.0
 20
0.0
  9
$PLIMMAX
 10
12.0
 20
9.0
  9
$UNITMODE
 70
               0
  9
$VISRETAIN
 70
               0
  9
$PLINEGEN
 70
               1
  9
$PSLTSCALE
 70
               0
  9
$TREEDEPTH
 70
            3020
  9
$PICKSTYLE
 70
               1
  9
$CMLSTYLE
  2
Standard
  9
$CMLJUST
 70
               0
  9
$CMLSCALE
 40
1.0
  9
$PROXYGRAPHICS
 70
               0
  9
$MEASUREMENT
 70
               0
  0
ENDSEC
  0
SECTION
  2
CLASSES
  0
CLASS
  1
LWPOLYLINE
  2
AcDbPolyline
  3
"AutoCAD"
 90
        0
280
               0
281
               1
  0
CLASS
  1
IMAGE
  2
AcDbRasterImage
  3
ISM
 90
      127
280
               0
281
               1
  0
CLASS
  1
OLE2FRAME
  2
AcDbOle2Frame
  3
""
 90
        0
280
               0
281
               1
  0
CLASS
  1
HATCH
  2
AcDbHatch
  3
"ACAD_SEDONA"
 90
        0
280
               0
281
               1
  0
CLASS
  1
DICTIONARYVAR
  2
AcDbDictionaryVar
  3
"AutoCAD"
 90
        0
280
               0
281
               0
  0
CLASS
  1
RASTERVARIABLES
  2
AcDbRasterVariables
  3
ISM
 90
        0
280
               0
281
               0
  0
CLASS
  1
IMAGEDEF
  2
AcDbRasterImageDef
  3
ISM
 90
        0
280
               0
281
               0
  0
CLASS
  1
IMAGEDEF_REACTOR
  2
AcDbRasterImageDefReactor
  3
ISM
 90
        1
280
               0
281
               0
  0
CLASS
  1
IDBUFFER
  2
AcDbIdBuffer
  3
"Acad"
 90
        0
280
               0
281
               0
  0
CLASS
  1
SPATIAL_FILTER
  2
AcDbSpatialFilter
  3
"Acad"
 90
        0
280
               0
281
               0
  0
CLASS
  1
XRECORD
  2
AcDbXrecord
  3
"<Built In>"
 90
        0
280
               0
281
               0
  0
CLASS
  1
SORTENTSTABLE
  2
AcDbSortentsTable
  3
"AutoCAD"
 90
        0
280
               0
281
               0
  0
CLASS
  1
LAYER_INDEX
  2
AcDbLayerIndex
  3
"Acad"
 90
        0
280
               0
281
               0
  0
CLASS
  1
SPATIAL_INDEX
  2
AcDbSpatialIndex
  3
"Acad"
 90
        0
280
               0
281
               0
  0
CLASS
  1
OBJECT_PTR
  2
CAseDLPNTableRecord
  3
"ASE-LPNTableRecord"
 90
        1
280
               0
281
               0
  0
CLASS
  1
LAYOUT
  2
AcDbLayout
  3
"AutoCAD 2000"
 90
        0
280
               0
281
               0
  0
CLASS
  1
PLOTSETTINGS
  2
AcDbPlotSettings
  3
"AutoCAD 2000"
 90
        0
280
               0
281
               0
  0
CLASS
  1
ACDBDICTIONARYWDFLT
  2
AcDbDictionaryWithDefault
  3
"AutoCAD 2000"
 90
        0
280
               0
281
               0
  0
CLASS
  1
ACDBPLACEHOLDER
  2
AcDbPlaceHolder
  3
"AutoCAD 2000"
 90
        0
280
               0
281
               0
  0
CLASS
  1
VBA_PROJECT
  2
AcDbVbaProject
  3
"acadvba"
 90
        0
280
               0
281
               0
  0
CLASS
  1
WIPEOUT
  2
AcDbWipeout
  3
WipeOut|AutoCAD Express Tool|expresstools@autodesk.com
 90
      127
280
               0
281
               1
  0
CLASS
  1
WIPEOUTVARIABLES
  2
AcDbWipeoutVariables
  3
WipeOut|AutoCAD Express Tool|expresstools@autodesk.com
 90
        0
280
               0
281
               0
  0
CLASS
  1
RTEXT
  2
RText
  3
RText|AutoCAD Express Tool|expresstools@autodesk.com
 90
        0
280
               0
281
               1
  0
CLASS
  1
ARCALIGNEDTEXT
  2
AcDbArcAlignedText
  3
ATEXT|AutoCAD Express Tool|expresstools@autodesk.com
 90
        0
280
               0
281
               1
  0
ENDSEC
  0
SECTION
  2
TABLES
  0
TABLE
  2
VPORT
  5
7
100
AcDbSymbolTable
 70
               1
  0
VPORT
  5
15
100
AcDbSymbolTableRecord
100
AcDbViewportTableRecord
  2
*ACTIVE
 70
               0
 10
0.0
 20
0.0
 11
1.0
 21
1.0
 12
210.0
 22
148.5
 13
0.0
 23
0.0
 14
10.0
 24
10.0
 15
10.0
 25
10.0
 16
0.0
 26
0.0
 36
1.0
 17
0.0
 27
0.0
 37
0.0
 40
297.0
 41
1.4141414141414141
 42
50.0
 43
0.0
 44
0.0
 50
0.0
 51
0.0
 71
               0
 72
             100
 73
               1
 74
               1
 75
               0
 76
               0
 77
               0
 78
               0
  0
ENDTAB
  0
TABLE
  2
LTYPE
  5
4
100
AcDbSymbolTable
 70
              38
  0
LTYPE
  5
11
100
AcDbSymbolTableRecord
100
AcDbLinetypeTableRecord
  2
ByBlock
 70
              64
  3

 72
              65
 73
               0
 40
0.0
  0
LTYPE
  5
12
100
AcDbSymbolTableRecord
100
AcDbLinetypeTableRecord
  2
ByLayer
 70
              64
  3

 72
              65
 73
               0
 40
0.0
  0
LTYPE
  5
13
100
AcDbSymbolTableRecord
100
AcDbLinetypeTableRecord
  2
Continuous
 70
              64
  3
Solid line
 72
              65
 73
               0
 40
0.0
  0
LTYPE
  5
1D
100
AcDbSymbolTableRecord
100
AcDbLinetypeTableRecord
  2
DOT
 70
              64
  3
Dot . . . . . . . . . . . . . . . . . . . . . .
 72
              65
 73
               2
 40
6.3499999999999996
 49
0.35
 74
               0
 49
-6.0
 74
               0
  0
LTYPE
  5
1E
100
AcDbSymbolTableRecord
100
AcDbLinetypeTableRecord
  2
DOT2
 70
              64
  3
Dot (.5x) .....................................
 72
              65
 73
               2
 40
3.1749999999999998
 49
0.175
 74
               0
 49
-3.0
 74
               0
  0
LTYPE
  5
1F
100
AcDbSymbolTableRecord
100
AcDbLinetypeTableRecord
  2
DOTX2
 70
              64
  3
Dot (2x) .  .  .  .  .  .  .  .  .  .  .  .  . 
 72
              65
 73
               2
 40
12.699999999999999
 49
0.7
 74
               0
 49
-12.0
 74
               0
  0
LTYPE
  5
20
100
AcDbSymbolTableRecord
100
AcDbLinetypeTableRecord
  2
DASHED
 70
              64
  3
Dashed __ __ __ __ __ __ __ __ __ __ __ __ __ _
 72
              65
 73
               2
 40
12.699999999999999
 49
6.3499999999999996
 74
               0
 49
-6.3499999999999996
 74
               0
  0
LTYPE
  5
21
100
AcDbSymbolTableRecord
100
AcDbLinetypeTableRecord
  2
DASHED2
 70
              64
  3
Dashed (.5x) _ _ _ _ _ _ _ _ _ _ _ _ _ _ _ _ _
 72
              65
 73
               2
 40
6.3499999999999996
 49
3.1749999999999998
 74
               0
 49
-3.1749999999999998
 74
               0
  0
LTYPE
  5
22
100
AcDbSymbolTableRecord
100
AcDbLinetypeTableRecord
  2
DASHEDX2
 70
              64
  3
Dashed (2x) ____  ____  ____  ____  ____  ___
 72
              65
 73
               2
 40
25.399999999999999
 49
12.699999999999999
 74
               0
 49
-12.699999999999999
 74
               0
  0
LTYPE
  5
23
100
AcDbSymbolTableRecord
100
AcDbLinetypeTableRecord
  2
DASHDOT
 70
              64
  3
Dash dot __ . __ . __ . __ . __ . __ . __ . __
 72
              65
 73
               4
 40
25.399999999999999
 49
12.699999999999999
 74
               0
 49
-6.0
 74
               0
 49
0.7
 74
               0
 49
-6.0
 74
               0
  0
LTYPE
  5
24
100
AcDbSymbolTableRecord
100
AcDbLinetypeTableRecord
  2
DASHDOT2
 70
              64
  3
Dash dot (.5x) _._._._._._._._._._._._._._._.
 72
              65
 73
               4
 40
12.699999999999999
 49
6.3499999999999996
 74
               0
 49
-3.0
 74
               0
 49
0.35
 74
               0
 49
-3.0
 74
               0
  0
LTYPE
  5
25
100
AcDbSymbolTableRecord
100
AcDbLinetypeTableRecord
  2
DASHDOTX2
 70
              64
  3
Dash dot (2x) ____  .  ____  .  ____  .  ___
 72
              65
 73
               4
 40
50.799999999999997
 49
25.399999999999999
 74
               0
 49
-12.0
 74
               0
 49
1.3999999999999999
 74
               0
 49
-12.0
 74
               0
  0
LTYPE
  5
26
100
AcDbSymbolTableRecord
100
AcDbLinetypeTableRecord
  2
DIVIDE
 70
              64
  3
Divide ____ . . ____ . . ____ . . ____ . . ____
 72
              65
 73
               6
 40
31.75
 49
12.699999999999999
 74
               0
 49
-6.0
 74
               0
 49
0.875
 74
               0
 49
-6.0
 74
               0
 49
0.875
 74
               0
 49
-6.0
 74
               0
  0
LTYPE
  5
27
100
AcDbSymbolTableRecord
100
AcDbLinetypeTableRecord
  2
DIVIDE2
 70
              64
  3
Divide (.5x) __..__..__..__..__..__..__..__.._
 72
              65
 73
               6
 40
15.875
 49
6.3499999999999996
 74
               0
 49
-3.0
 74
               0
 49
0.4375
 74
               0
 49
-3.0
 74
               0
 49
0.4375
 74
               0
 49
-3.0
 74
               0
  0
LTYPE
  5
28
100
AcDbSymbolTableRecord
100
AcDbLinetypeTableRecord
  2
DIVIDEX2
 70
              64
  3
Divide (2x) ________  .  .  ________  .  .  _
 72
              65
 73
               6
 40
63.5
 49
25.399999999999999
 74
               0
 49
-12.0
 74
               0
 49
1.75
 74
               0
 49
-12.0
 74
               0
 49
1.75
 74
               0
 49
-12.0
 74
               0
  0
LTYPE
  5
29
100
AcDbSymbolTableRecord
100
AcDbLinetypeTableRecord
  2
HIDDEN
 70
              64
  3
Hidden __ __ __ __ __ __ __ __ __ __ __ __ __ _
 72
              65
 73
               2
 40
9.5250000000000004
 49
6.3499999999999996
 74
               0
 49
-3.1749999999999998
 74
               0
  0
LTYPE
  5
2A
100
AcDbSymbolTableRecord
100
AcDbLinetypeTableRecord
  2
HIDDEN2
 70
              64
  3
Hidden (.5x) _ _ _ _ _ _ _ _ _ _ _ _ _ _ _ _ _
 72
              65
 73
               2
 40
4.7625000000000002
 49
3.1749999999999998
 74
               0
 49
-1.5874999999999999
 74
               0
  0
LTYPE
  5
2B
100
AcDbSymbolTableRecord
100
AcDbLinetypeTableRecord
  2
HIDDENX2
 70
              64
  3
Hidden (2x) ____ ____ ____ ____ ____ ____ ____
 72
              65
 73
               2
 40
19.050000000000001
 49
12.699999999999999
 74
               0
 49
-6.3499999999999996
 74
               0
  0
LTYPE
  5
2C
100
AcDbSymbolTableRecord
100
AcDbLinetypeTableRecord
  2
CENTER
 70
              64
  3
Center ____ _ ____ _ ____ _ ____ _ ____ _ ____
 72
              65
 73
               4
 40
50.799999999999997
 49
31.75
 74
               0
 49
-6.3499999999999996
 74
               0
 49
6.3499999999999996
 74
               0
 49
-6.3499999999999996
 74
               0
  0
LTYPE
  5
2D
100
AcDbSymbolTableRecord
100
AcDbLinetypeTableRecord
  2
CENTER2
 70
              64
  3
Center (.5x) ___ _ ___ _ ___ _ ___ _ ___ _ ___
 72
              65
 73
               4
 40
25.399999999999999
 49
15.875
 74
               0
 49
-3.1749999999999998
 74
               0
 49
3.1749999999999998
 74
               0
 49
-3.1749999999999998
 74
               0
  0
LTYPE
  5
2E
100
AcDbSymbolTableRecord
100
AcDbLinetypeTableRecord
  2
CENTERX2
 70
              64
  3
Center (2x) ________  __  ________  __  _____
 72
              65
 73
               4
 40
101.59999999999999
 49
63.5
 74
               0
 49
-12.699999999999999
 74
               0
 49
12.699999999999999
 74
               0
 49
-12.699999999999999
 74
               0
  0
LTYPE
  5
2F
100
AcDbSymbolTableRecord
100
AcDbLinetypeTableRecord
  2
PHANTOM
 70
              64
  3
Phantom ______  __  __  ______  __  __  ______
 72
              65
 73
               6
 40
63.5
 49
31.75
 74
               0
 49
-6.3499999999999996
 74
               0
 49
6.3499999999999996
 74
               0
 49
-6.3499999999999996
 74
               0
 49
6.3499999999999996
 74
               0
 49
-6.3499999999999996
 74
               0
  0
LTYPE
  5
30
100
AcDbSymbolTableRecord
100
AcDbLinetypeTableRecord
  2
PHANTOM2
 70
              64
  3
Phantom Phantom (.5x) ___ _ _ ___ _ _ ___ _ _ ___ _ _
 72
              65
 73
               6
 40
31.75
 49
15.875
 74
               0
 49
-3.1749999999999998
 74
               0
 49
3.1749999999999998
 74
               0
 49
-3.1749999999999998
 74
               0
 49
3.1749999999999998
 74
               0
 49
-3.1749999999999998
 74
               0
  0
LTYPE
  5
31
100
AcDbSymbolTableRecord
100
AcDbLinetypeTableRecord
  2
PHANTOM
 70
              64
  3
Phantom (2x) ____________    ____    ____   _
 72
              65
 73
               6
 40
127.0
 49
63.5
 74
               0
 49
-12.699999999999999
 74
               0
 49
12.699999999999999
 74
               0
 49
-12.699999999999999
 74
               0
 49
12.699999999999999
 74
               0
 49
-12.699999999999999
 74
               0
  0
LTYPE
  5
32
100
AcDbSymbolTableRecord
100
AcDbLinetypeTableRecord
  2
ACAD_ISO02W100
 70
              64
  3
ISO dash __ __ __ __ __ __ __ __ __ __ __ __ __
 72
              65
 73
               2
 40
15.0
 49
12.0
 74
               0
 49
-3.0
 74
               0
  0
LTYPE
  5
33
100
AcDbSymbolTableRecord
100
AcDbLinetypeTableRecord
  2
ACAD_ISO03W100
 70
              64
  3
ISO dash space __ __ __ __ __ __ __ __ __ __ __ __ __ __
 72
              65
 73
               2
 40
30.0
 49
12.0
 74
               0
 49
-18.0
 74
               0
  0
LTYPE
  5
34
100
AcDbSymbolTableRecord
100
AcDbLinetypeTableRecord
  2
ACAD_ISO04W100
 70
              64
  3
ISO long-dash dot ____ . ____ . ____ . ____ . _
 72
              65
 73
               4
 40
30.0
 49
24.0
 74
               0
 49
-3.0
 74
               0
 49
0.0
 74
               0
 49
-3.0
 74
               0
  0
LTYPE
  5
35
100
AcDbSymbolTableRecord
100
AcDbLinetypeTableRecord
  2
ACAD_ISO05W100
 70
              64
  3
ISO long-dash double-dot ____ .. ____ .. ____ .
 72
              65
 73
               6
 40
33.0
 49
24.0
 74
               0
 49
-3.0
 74
               0
 49
0.0
 74
               0
 49
-3.0
 74
               0
 49
0.0
 74
               0
 49
-3.0
 74
               0
  0
LTYPE
  5
36
100
AcDbSymbolTableRecord
100
AcDbLinetypeTableRecord
  2
ACAD_ISO06W100
 70
              64
  3
ISO long-dash triple-dot ____ ... ____ ... ____
 72
              65
 73
               8
 40
36.0
 49
24.0
 74
               0
 49
-3.0
 74
               0
 49
0.0
 74
               0
 49
-3.0
 74
               0
 49
0.0
 74
               0
 49
-3.0
 74
               0
 49
0.0
 74
               0
 49
-3.0
 74
               0
  0
LTYPE
  5
37
100
AcDbSymbolTableRecord
100
AcDbLinetypeTableRecord
  2
ACAD_ISO07W100
 70
              64
  3
ISO dot . . . . . . . . . . . . . . . . . . . .
 72
              65
 73
               2
 40
3.0
 49
0.0
 74
               0
 49
-3.0
 74
               0
  0
LTYPE
  5
38
100
AcDbSymbolTableRecord
100
AcDbLinetypeTableRecord
  2
ACAD_ISO08W100
 70
              64
  3
ISO long-dash short-dash ____ __ ____ __ ____ _
 72
              65
 73
               4
 40
36.0
 49
24.0
 74
               0
 49
-3.0
 74
               0
 49
6.0
 74
               0
 49
-3.0
 74
               0
  0
LTYPE
  5
39
100
AcDbSymbolTableRecord
100
AcDbLinetypeTableRecord
  2
ACAD_ISO09W100
 70
              64
  3
ISO long-dash double-short-dash ____ __ __ ____
 72
              65
 73
               6
 40
45.0
 49
24.0
 74
               0
 49
-3.0
 74
               0
 49
6.0
 74
               0
 49
-3.0
 74
               0
 49
6.0
 74
               0
 49
-3.0
 74
               0
  0
LTYPE
  5
3A
100
AcDbSymbolTableRecord
100
AcDbLinetypeTableRecord
  2
ACAD_ISO10W100
 70
              64
  3
ISO dash dot __ . __ . __ . __ . __ . __ . __ .
 72
              65
 73
               4
 40
18.0
 49
12.0
 74
               0
 49
-3.0
 74
               0
 49
0.0
 74
               0
 49
-3.0
 74
               0
  0
LTYPE
  5
3B
100
AcDbSymbolTableRecord
100
AcDbLinetypeTableRecord
  2
ACAD_ISO11W100
 70
              64
  3
ISO double-dash dot __ __ . __ __ . __ __ . __ 
 72
              65
 73
               6
 40
33.0
 49
12.0
 74
               0
 49
-3.0
 74
               0
 49
12.0
 74
               0
 49
-3.0
 74
               0
 49
0.0
 74
               0
 49
-3.0
 74
               0
  0
LTYPE
  5
3C
100
AcDbSymbolTableRecord
100
AcDbLinetypeTableRecord
  2
ACAD_ISO12W100
 70
              64
  3
ISO dash double-dot __ . . __ . . __ . . __ . .
 72
              65
 73
               6
 40
21.0
 49
12.0
 74
               0
 49
-3.0
 74
               0
 49
0.0
 74
               0
 49
-3.0
 74
               0
 49
0.0
 74
               0
 49
-3.0
 74
               0
  0
LTYPE
  5
3D
100
AcDbSymbolTableRecord
100
AcDbLinetypeTableRecord
  2
ACAD_ISO13W100
 70
              64
  3
ISO double-dash double-dot __ __ . . __ __ . . 
 72
              65
 73
               8
 40
36.0
 49
12.0
 74
               0
 49
-3.0
 74
               0
 49
12.0
 74
               0
 49
-3.0
 74
               0
 49
0.0
 74
               0
 49
-3.0
 74
               0
 49
0.0
 74
               0
 49
-3.0
 74
               0
  0
LTYPE
  5
3E
100
AcDbSymbolTableRecord
100
AcDbLinetypeTableRecord
  2
ACAD_ISO14W100
 70
              64
  3
ISO dash triple-dot __ . . . __ . . . __ . . . 
 72
              65
 73
               8
 40
24.0
 49
12.0
 74
               0
 49
-3.0
 74
               0
 49
0.0
 74
               0
 49
-3.0
 74
               0
 49
0.0
 74
               0
 49
-3.0
 74
               0
 49
0.0
 74
               0
 49
-3.0
 74
               0
  0
LTYPE
  5
3F
100
AcDbSymbolTableRecord
100
AcDbLinetypeTableRecord
  2
ACAD_ISO15W100
 70
              64
  3
ISO double-dash double-dot __ __ . . __ __ . . 
 72
              65
 73
              10
 40
39.0
 49
12.0
 74
               0
 49
-3.0
 74
               0
 49
12.0
 74
               0
 49
-3.0
 74
               0
 49
0.0
 74
               0
 49
-3.0
 74
               0
 49
0.0
 74
               0
 49
-3.0
 74
               0
 49
0.0
 74
               0
 49
-3.0
 74
               0
  0
ENDTAB
  0
TABLE
  2
LAYER
  5
2
100
AcDbSymbolTable
 70
              16
  0
LAYER
  5
14
100
AcDbSymbolTableRecord
100
AcDbLayerTableRecord
  2
0
 70
               0
 62
               7
  6
Continuous
  0
LAYER
  5
41
100
AcDbSymbolTableRecord
100
AcDbLayerTableRecord
  2
Layer00001
 70
               0
 62
               7
  6
Continuous
  0
LAYER
  5
42
100
AcDbSymbolTableRecord
100
AcDbLayerTableRecord
  2
Layer00002
 70
               0
 62
               7
  6
Continuous
  0
LAYER
  5
43
100
AcDbSymbolTableRecord
100
AcDbLayerTableRecord
  2
Layer00003
 70
               0
 62
               7
  6
Continuous
  0
LAYER
  5
44
100
AcDbSymbolTableRecord
100
AcDbLayerTableRecord
  2
Layer00004
 70
               0
 62
               7
  6
Continuous
  0
LAYER
  5
45
100
AcDbSymbolTableRecord
100
AcDbLayerTableRecord
  2
Layer00005
 70
               0
 62
               7
  6
Continuous
  0
LAYER
  5
46
100
AcDbSymbolTableRecord
100
AcDbLayerTableRecord
  2
Layer00006
 70
               0
 62
               7
  6
Continuous
  0
LAYER
  5
47
100
AcDbSymbolTableRecord
100
AcDbLayerTableRecord
  2
Layer00007
 70
               0
 62
               7
  6
Continuous
  0
LAYER
  5
48
100
AcDbSymbolTableRecord
100
AcDbLayerTableRecord
  2
Layer00008
 70
               0
 62
               7
  6
Continuous
  0
LAYER
  5
49
100
AcDbSymbolTableRecord
100
AcDbLayerTableRecord
  2
Layer00009
 70
               0
 62
               7
  6
Continuous
  0
LAYER
  5
4A
100
AcDbSymbolTableRecord
100
AcDbLayerTableRecord
  2
Layer00010
 70
               0
 62
               7
  6
Continuous
  0
LAYER
  5
4B
100
AcDbSymbolTableRecord
100
AcDbLayerTableRecord
  2
Layer00011
 70
               0
 62
               7
  6
Continuous
  0
LAYER
  5
4C
100
AcDbSymbolTableRecord
100
AcDbLayerTableRecord
  2
Layer00012
 70
               0
 62
               7
  6
Continuous
  0
LAYER
  5
4D
100
AcDbSymbolTableRecord
100
AcDbLayerTableRecord
  2
Layer00013
 70
               0
 62
               7
  6
Continuous
  0
LAYER
  5
4E
100
AcDbSymbolTableRecord
100
AcDbLayerTableRecord
  2
Layer00014
 70
               0
 62
               7
  6
Continuous
  0
LAYER
  5
4F
100
AcDbSymbolTableRecord
100
AcDbLayerTableRecord
  2
Layer00015
 70
               0
 62
               7
  6
Continuous
  0
ENDTAB
  0
TABLE
  2
STYLE
  5
3
100
AcDbSymbolTable
 70
               2
  0
STYLE
  5
17
100
AcDbSymbolTableRecord
100
AcDbTextStyleTableRecord
  2
Standard
 70
               0
 40
0.0
 41
1.0
 50
0.0
 71
               0
 42
0.0
  3
txt.shx
  4
bigfont.shx
  0
STYLE
  5
40
100
AcDbSymbolTableRecord
100
AcDbTextStyleTableRecord
  2
STANDARD_T
 70
               4
 40
0.0
 41
1.0
 50
0.0
 71
               0
 42
0.0
  3
txt.shx
  4
bigfont.shx
  0
ENDTAB
  0
TABLE
  2
VIEW
  5
5
100
AcDbSymbolTable
 70
               0
  0
ENDTAB
  0
TABLE
  2
UCS
  5
6
100
AcDbSymbolTable
 70
               0
  0
ENDTAB
  0
TABLE
  2
APPID
  5
8
100
AcDbSymbolTable
 70
               1
  0
APPID
  5
16
100
AcDbSymbolTableRecord
100
AcDbRegAppTableRecord
  2
ACAD
 70
               0
  0
ENDTAB
  0
TABLE
  2
DIMSTYLE
  5
9
100
AcDbSymbolTable
 70
               1
  0
DIMSTYLE
105
18
100
AcDbSymbolTableRecord
100
AcDbDimStyleTableRecord
  2
Standard
 70
               0
  3

  4

  5

  6

  7

 40
1.0
 41
0.18
 42
0.0625
 43
0.38
 44
0.18
 45
0.0
 46
0.0
 47
0.0
 48
0.0
 71
               0
 72
               0
 73
               1
 74
               1
 75
               0
 76
               0
 77
               0
 78
               0
140
0.18
141
0.09
142
0.0
143
25.399999999999999
144
1.0
145
0.0
146
1.0
147
0.09
170
               0
171
               2
172
               0
173
               0
174
               0
175
               0
176
               0
177
               0
178
               0
270
               2
271
               4
272
               4
273
               2
274
               2
275
               0
280
               0
281
               0
282
               0
283
               1
284
               0
285
               0
286
               0
287
               3
288
               0
340
17
  0
ENDTAB
  0
TABLE
  2
BLOCK_RECORD
  5
1
100
AcDbSymbolTable
 70
               0
  0
BLOCK_RECORD
  5
A
100
AcDbSymbolTableRecord
100
AcDbBlockTableRecord
  2
*MODEL_SPACE
  0
BLOCK_RECORD
  5
B
100
AcDbSymbolTableRecord
100
AcDbBlockTableRecord
  2
*PAPER_SPACE
  0
ENDTAB
  0
ENDSEC
  0
SECTION
  2
BLOCKS
  0
BLOCK
  5
D
100
AcDbEntity
  8
0
100
AcDbBlockBegin
  2
*MODEL_SPACE
 70
               0
 10
0.0
 20
0.0
 30
0.0
  3
*MODEL_SPACE
  1

  0
ENDBLK
  5
E
100
AcDbEntity
  8
0
100
AcDbBlockEnd
  0
BLOCK
  5
F
100
AcDbEntity
 67
               1
  8
0
100
AcDbBlockBegin
  2
*PAPER_SPACE
 70
               0
 10
0.0
 20
0.0
 30
0.0
  3
*PAPER_SPACE
  1

  0
ENDBLK
  5
10
100
AcDbEntity
 67
               1
  8
0
100
AcDbBlockEnd
  0
ENDSEC
  0
SECTION
  2
ENTITIES
  0
LINE
  5
50
100
AcDbEntity
  8
0
  6
Continuous
 62
               7
100
AcDbLine
 10
330.86879708660433
 20
112.8206402871721
 30
0.0
 11
331.29899615949159
 21
112.71863332987064
 31
0.0
  0
LINE
  5
51
100
AcDbEntity
  8
0
  6
Continuous
 62
               7
100
AcDbLine
 10
331.29899615949159
 20
112.71863332987064
 30
0.0
 11
331.62055600664587
 21
112.16167533692547
 31
0.0
  0
LINE
  5
52
100
AcDbEntity
  8
0
  6
Continuous
 62
               7
100
AcDbLine
 10
331.62055600664587
 20
112.16167533692501
 30
0.0
 11
331.49379708658796
 21
111.73810853246974
 31
0.0
  0
LINE
  5
53
100
AcDbEntity
  8
0
  6
Continuous
 62
               7
100
AcDbLine
 10
331.49379708658796
 20
111.73810853246974
 30
0.0
 11
331.06359801371525
 21
111.84011548982576
 31
0.0
  0
LINE
  5
54
100
AcDbEntity
  8
0
  6
Continuous
 62
               7
100
AcDbLine
 10
331.06359801371525
 20
111.84011548982576
 30
0.0
 11
330.74203816658462
 21
112.39707348270591
 31
0.0
  0
LINE
  5
55
100
AcDbEntity
  8
0
  6
Continuous
 62
               7
100
AcDbLine
 10
330.74203816653369
 20
112.39707348279458
 30
0.0
 11
330.86879708661525
 21
112.82064028716937
 31
0.0
  0
LINE
  5
56
100
AcDbEntity
  8
0
  6
Continuous
 62
               7
100
AcDbLine
 10
330.93548252319795
 20
113.41102007567056
 30
0.0
 11
330.98930978850092
 21
113.61190616454101
 31
0.0
  0
LINE
  5
57
100
AcDbEntity
  8
0
  6
Continuous
 62
               7
100
AcDbLine
 10
331.36849522508362
 20
113.66102007566693
 30
0.0
 11
331.42232249038659
 21
113.86190616453737
 31
0.0
  0
LINE
  5
58
100
AcDbEntity
  8
0
  6
Continuous
 62
               7
100
AcDbLine
 10
331.80150792698203
 20
113.91102007566965
 30
0.0
 11
331.855335192285
 21
114.11190616454056
 31
0.0
  0
LINE
  5
59
100
AcDbEntity
  8
0
  6
Continuous
 62
               7
100
AcDbLine
 10
332.23452062886952
 20
114.16102007566693
 30
0.0
 11
332.28834789417249
 21
114.36190616453783
 31
0.0
  0
LINE
  5
5A
100
AcDbEntity
  8
0
  6
Continuous
 62
               7
100
AcDbLine
 10
332.03842369960455
 20
111.50066992037333
 30
0.0
 11
332.23930978848637
 21
111.44684265510674
 31
0.0
  0
LINE
  5
5B
100
AcDbEntity
  8
0
  6
Continuous
 62
               7
100
AcDbLine
 10
332.47143640149022
 20
111.75066992036923
 30
0.0
 11
332.67232249037204
 21
111.6968426551031
 31
0.0
  0
LINE
  5
5C
100
AcDbEntity
  8
0
  6
Continuous
 62
               7
100
AcDbLine
 10
332.90444910338863
 20
112.00066992037242
 30
0.0
 11
333.10533519226863
 21
111.94684265510583
 31
0.0
  0
LINE
  5
5D
100
AcDbEntity
  8
0
  6
Continuous
 62
               7
100
AcDbLine
 10
333.33746180527612
 20
112.25066992036969
 30
0.0
 11
333.53834789415612
 21
112.1968426551031
 31
0.0
  0
LINE
  5
5E
100
AcDbEntity
  8
0
  6
Continuous
 62
               7
100
AcDbLine
 10
323.12460306884475
 20
107.83666456267215
 30
0.0
 11
323.12460306884475
 21
88.750632430785259
 31
0.0
  0
LINE
  5
5F
100
AcDbEntity
  8
0
  6
Continuous
 62
               7
100
AcDbLine
 10
322.17804322171412
 20
88.429072583646899
 30
0.0
 11
321.8746030688593
 21
88.750632430785259
 31
0.0
  0
LINE
  5
60
100
AcDbEntity
  8
0
  6
Continuous
 62
               7
100
AcDbLine
 10
323.12460306884475
 20
88.750632430785259
 30
0.0
 11
322.82116291599539
 21
88.429072583642352
 31
0.0
  0
LINE
  5
61
100
AcDbEntity
  8
0
  6
Continuous
 62
               7
100
AcDbLine
 10
322.82116291599539
 20
88.429072583642352
 30
0.0
 11
322.17804322173413
 21
88.429072583626436
 31
0.0
  0
LINE
  5
62
100
AcDbEntity
  8
0
  6
Continuous
 62
               7
100
AcDbLine
 10
321.8746030688593
 20
107.98100212997102
 30
0.0
 11
321.8746030688593
 21
88.750632430785259
 31
0.0
  0
LINE
  5
63
100
AcDbEntity
  8
0
  6
Continuous
 62
               7
100
AcDbLine
 10
328.13093239978423
 20
112.45912095710369
 30
0.0
 11
328.56113147267149
 21
112.35711399977495
 31
0.0
  0
LINE
  5
64
100
AcDbEntity
  8
0
  6
Continuous
 62
               7
100
AcDbLine
 10
328.56113147267149
 20
112.35711399977495
 30
0.0
 11
328.8826913198094
 21
111.80015600685525
 31
0.0
  0
LINE
  5
65
100
AcDbEntity
  8
0
  6
Continuous
 62
               7
100
AcDbLine
 10
328.8826913198094
 20
111.80015600685525
 30
0.0
 11
328.75593239977695
 21
111.37658920238587
 31
0.0
  0
LINE
  5
66
100
AcDbEntity
  8
0
  6
Continuous
 62
               7
100
AcDbLine
 10
323.37460306884475
 20
108.26967726456465
 30
0.0
 11
328.75593239978241
 21
111.3765892023786
 31
0.0
  0
LINE
  5
67
100
AcDbEntity
  8
0
  6
Continuous
 62
               7
100
AcDbLine
 10
322.6246030688593
 20
109.28004023564804
 30
0.0
 11
328.13093239978423
 21
112.45912095710415
 31
0.0
  0
LINE
  5
68
100
AcDbEntity
  8
0
  6
Continuous
 62
               7
100
AcDbLine
 10
333.61519953896038
 20
133.45798209481759
 30
0.0
 11
333.00831923325075
 21
134.10110178909386
 31
0.0
  0
LINE
  5
69
100
AcDbEntity
  8
0
  6
Continuous
 62
               7
100
AcDbLine
 10
335.50831923322164
 20
134.10110178909386
 30
0.0
 11
334.9014389275211
 21
133.45798209480805
 31
0.0
  0
LINE
  5
6A
100
AcDbEntity
  8
0
  6
Continuous
 62
               7
100
AcDbLine
 10
334.9014389275211
 20
133.45798209480805
 30
0.0
 11
333.61519953899858
 21
133.45798209477621
 31
0.0
  0
LINE
  5
6B
100
AcDbEntity
  8
0
  6
Continuous
 62
               7
100
AcDbLine
 10
307.8892963373977
 20
130.42265981476081
 30
0.0
 11
308.14281417745894
 21
131.26979342370001
 31
0.0
  0
LINE
  5
6C
100
AcDbEntity
  8
0
  6
Continuous
 62
               7
100
AcDbLine
 10
308.14281417745894
 20
131.26979342370001
 30
0.0
 11
309.00321232323347
 21
131.06577950904162
 31
0.0
  0
LINE
  5
6D
100
AcDbEntity
  8
0
  6
Continuous
 62
               7
100
AcDbLine
 10
309.00321232323347
 20
131.06577950904162
 30
0.0
 11
309.64633201750746
 21
129.95186352320221
 31
0.0
  0
LINE
  5
6E
100
AcDbEntity
  8
0
  6
Continuous
 62
               7
100
AcDbLine
 10
309.64633201750746
 20
129.95186352320221
 30
0.0
 11
309.39281417744439
 21
129.10472991426391
 31
0.0
  0
LINE
  5
6F
100
AcDbEntity
  8
0
  6
Continuous
 62
               7
100
AcDbLine
 10
309.39281417744439
 20
129.10472991426391
 30
0.0
 11
308.53241603166987
 21
129.30874382891366
 31
0.0
  0
LINE
  5
70
100
AcDbEntity
  8
0
  6
Continuous
 62
               7
100
AcDbLine
 10
308.53241603166987
 20
129.30874382891366
 30
0.0
 11
307.88929633738132
 21
130.42265981470624
 31
0.0
  0
LINE
  5
71
100
AcDbEntity
  8
0
  6
Continuous
 62
               7
100
AcDbLine
 10
332.86519953899858
 20
142.65651792126042
 30
0.0
 11
309.39281417745349
 21
129.10472991424982
 31
0.0
  0
LINE
  5
72
100
AcDbEntity
  8
0
  6
Continuous
 62
               7
100
AcDbLine
 10
332.6514389275211
 20
143.23386819039311
 30
0.0
 11
309.64633201752565
 21
129.95186352317128
 31
0.0
  0
LINE
  5
73
100
AcDbEntity
  8
0
  6
Continuous
 62
               7
100
AcDbLine
 10
331.75831923322164
 20
144.20344660894867
 30
0.0
 11
309.00321232323893
 21
131.06577950903161
 31
0.0
  0
LINE
  5
74
100
AcDbEntity
  8
0
  6
Continuous
 62
               7
100
AcDbLine
 10
331.00831923322164
 20
144.47119892280139
 30
0.0
 11
308.14281417745894
 21
131.26979342370046
 31
0.0
  0
LINE
  5
75
100
AcDbEntity
  8
0
  6
Continuous
 62
               7
100
AcDbLine
 10
333.61519953899858
 20
142.22350521936792
 30
0.0
 11
333.61519953899858
 21
133.45798209481759
 31
0.0
  0
LINE
  5
76
100
AcDbEntity
  8
0
  6
Continuous
 62
               7
100
AcDbLine
 10
333.00831923325075
 20
142.73914811526234
 30
0.0
 11
333.00831923325075
 21
134.10110178909386
 31
0.0
  0
LINE
  5
77
100
AcDbEntity
  8
0
  6
Continuous
 62
               7
100
AcDbLine
 10
334.9014389275211
 20
141.93483008471654
 30
0.0
 11
334.9014389275211
 21
133.45798209480805
 31
0.0
  0
LINE
  5
78
100
AcDbEntity
  8
0
  6
Continuous
 62
               7
100
AcDbLine
 10
335.50831923322164
 20
141.87312271144779
 30
0.0
 11
335.50831923322164
 21
134.10110178909386
 31
0.0
  0
LINE
  5
79
100
AcDbEntity
  8
0
  6
Continuous
 62
               7
100
AcDbLine
 10
334.58863904204497
 20
130.68074287655614
 30
0.0
 11
338.5162262615753
 21
130.68074287655614
 31
0.0
  0
LINE
  5
7A
100
AcDbEntity
  8
0
  6
Continuous
 62
               7
100
AcDbLine
 10
334.08863904204497
 20
131.18074287655614
 30
0.0
 11
334.08863904204497
 21
132.93414692270986
 31
0.0
  0
LINE
  5
7B
100
AcDbEntity
  8
0
  6
Continuous
 62
               7
100
AcDbLine
 10
334.83863904204497
 20
131.18074287655614
 30
0.0
 11
338.7662262615753
 21
131.18074287655614
 31
0.0
  0
LINE
  5
7C
100
AcDbEntity
  8
0
  6
Continuous
 62
               7
100
AcDbLine
 10
334.58863904204497
 20
131.43074287655614
 30
0.0
 11
334.58863904204497
 21
132.93414692270986
 31
0.0
  0
LINE
  5
7D
100
AcDbEntity
  8
0
  6
Continuous
 62
               7
100
AcDbLine
 10
334.08863904204497
 20
132.93414692270986
 30
0.0
 11
334.58863904204497
 21
132.93414692270986
 31
0.0
  0
LINE
  5
7E
100
AcDbEntity
  8
0
  6
Continuous
 62
               7
100
AcDbLine
 10
338.7662262615753
 20
128.69852075607938
 30
0.0
 11
338.7662262615753
 21
130.43074287655614
 31
0.0
  0
LINE
  5
7F
100
AcDbEntity
  8
0
  6
Continuous
 62
               7
100
AcDbLine
 10
339.2662262615753
 20
128.69852075607938
 30
0.0
 11
339.2662262615753
 21
130.68074287655614
 31
0.0
  0
LINE
  5
80
100
AcDbEntity
  8
0
  6
Continuous
 62
               7
100
AcDbLine
 10
339.01622626157348
 20
127.17793432364547
 30
0.0
 11
340.29214977620302
 21
128.69852075607938
 31
0.0
  0
LINE
  5
81
100
AcDbEntity
  8
0
  6
Continuous
 62
               7
100
AcDbLine
 10
339.0162262615753
 20
127.17793432364547
 30
0.0
 11
337.74030274694576
 21
128.69852075607938
 31
0.0
  0
LINE
  5
82
100
AcDbEntity
  8
0
  6
Continuous
 62
               7
100
AcDbLine
 10
337.74030274694576
 20
128.69852075607938
 30
0.0
 11
338.7662262615753
 21
128.69852075607938
 31
0.0
  0
LINE
  5
83
100
AcDbEntity
  8
0
  6
Continuous
 62
               7
100
AcDbLine
 10
340.29214977620302
 20
128.69852075607938
 30
0.0
 11
339.2662262615753
 21
128.69852075607938
 31
0.0
  0
LINE
  5
84
100
AcDbEntity
  8
0
  6
Continuous
 62
               7
100
AcDbLine
 10
322.92804322173413
 20
109.10484898172049
 30
0.0
 11
328.56113147267513
 21
112.3571139997695
 31
0.0
  0
LINE
  5
85
100
AcDbEntity
  8
0
  6
Continuous
 62
               7
100
AcDbLine
 10
322.17804322173413
 20
107.80581087604347
 30
0.0
 11
322.17804322173413
 21
88.429072583646899
 31
0.0
  0
LINE
  5
86
100
AcDbEntity
  8
0
  6
Continuous
 62
               7
100
AcDbLine
 10
323.32116291599539
 20
108.58920608578697
 30
0.0
 11
328.88269131981849
 21
111.80015600683979
 31
0.0
  0
LINE
  5
87
100
AcDbEntity
  8
0
  6
DIVIDE
 62
               4
100
AcDbLine
 10
346.92466980939696
 20
119.15769447544167
 30
0.0
 11
373.77755892686889
 21
103.65417171495133
 31
0.0
  0
LINE
  5
88
100
AcDbEntity
  8
0
  6
DIVIDE
 62
               4
100
AcDbLine
 10
346.25402484185486
 20
118.82489152798249
 30
0.0
 11
372.79884470099512
 21
103.49923263671567
 31
0.0
  0
LINE
  5
89
100
AcDbEntity
  8
0
  6
Continuous
 62
               7
100
AcDbLine
 10
322.05753845205743
 20
116.06039778538448
 30
0.0
 11
322.05753845205743
 21
116.52227800073629
 31
0.0
  0
LINE
  5
8A
100
AcDbEntity
  8
0
  6
Continuous
 62
               7
100
AcDbLine
 10
323.05753845205743
 20
116.06039778538494
 30
0.0
 11
323.05753845205743
 21
115.4830475161954
 31
0.0
  0
LINE
  5
8B
100
AcDbEntity
  8
0
  6
Continuous
 62
               7
100
AcDbLine
 10
323.05753845205743
 20
115.4830475161954
 30
0.0
 11
323.45753845205888
 21
115.71398762387085
 31
0.0
  0
LINE
  5
8C
100
AcDbEntity
  8
0
  6
Continuous
 62
               7
100
AcDbLine
 10
324.45753845205888
 20
117.44603843143992
 30
0.0
 11
324.45753845205888
 21
117.90791864679173
 31
0.0
  0
LINE
  5
8D
100
AcDbEntity
  8
0
  6
Continuous
 62
               7
100
AcDbLine
 10
323.05753845205743
 20
118.25432880830536
 30
0.0
 11
323.45753845205888
 21
118.48526891598127
 31
0.0
  0
LINE
  5
8E
100
AcDbEntity
  8
0
  6
Continuous
 62
               7
100
AcDbLine
 10
322.55753845205743
 20
116.81095313533129
 30
0.0
 11
322.05753845205743
 21
116.52227800073629
 31
0.0
  0
LINE
  5
8F
100
AcDbEntity
  8
0
  6
Continuous
 62
               7
100
AcDbLine
 10
323.05753845205743
 20
117.67697853911582
 30
0.0
 11
323.05753845205743
 21
118.25432880830536
 31
0.0
  0
LINE
  5
90
100
AcDbEntity
  8
0
  6
Continuous
 62
               7
100
AcDbLine
 10
323.95753845205888
 20
117.15736329684492
 30
0.0
 11
324.45753845205888
 21
117.44603843143992
 31
0.0
  0
LINE
  5
91
100
AcDbEntity
  8
0
  6
Continuous
 62
               7
100
AcDbLine
 10
323.45753845205888
 20
116.29133789306084
 30
0.0
 11
323.45753845205888
 21
115.71398762387085
 31
0.0
  0
LINE
  5
92
100
AcDbEntity
  8
0
  6
Continuous
 62
               7
100
AcDbLine
 10
323.83253845205888
 20
117.54707472854821
 30
0.0
 11
324.45753845205888
 21
117.90791864679173
 31
0.0
  0
LINE
  5
93
100
AcDbEntity
  8
0
  6
Continuous
 62
               7
100
AcDbLine
 10
323.45753845205888
 20
117.76358107949378
 30
0.0
 11
323.45753845205888
 21
118.48526891598127
 31
0.0
  0
LINE
  5
94
100
AcDbEntity
  8
0
  6
Continuous
 62
               7
100
AcDbLine
 10
323.05753845205743
 20
116.20473535268243
 30
0.0
 11
323.05753845205743
 21
116.06039778538494
 31
0.0
  0
LINE
  5
95
100
AcDbEntity
  8
0
  6
Continuous
 62
               7
100
AcDbLine
 10
322.68253845205743
 20
116.42124170362845
 30
0.0
 11
322.05753845205743
 21
116.06039778538494
 31
0.0
  0
LINE
  5
96
100
AcDbEntity
  8
0
  6
Continuous
 62
               7
100
AcDbLine
 10
323.45753845205888
 20
115.71398762387085
 30
0.0
 11
323.05753845205743
 21
115.94492773154721
 31
0.0
  0
LINE
  5
97
100
AcDbEntity
  8
0
  6
Continuous
 62
               7
100
AcDbLine
 10
324.45753845205888
 20
117.44603843143992
 30
0.0
 11
324.05753845205743
 21
117.67697853911582
 31
0.0
  0
LINE
  5
98
100
AcDbEntity
  8
0
  6
Continuous
 62
               7
100
AcDbLine
 10
314.17841967598304
 20
112.07847754371247
 30
0.0
 11
314.17841967598304
 21
112.54035775906428
 31
0.0
  0
LINE
  5
99
100
AcDbEntity
  8
0
  6
Continuous
 62
               7
100
AcDbLine
 10
315.17841967598304
 20
112.07847754371292
 30
0.0
 11
315.17841967598304
 21
111.50112727452338
 31
0.0
  0
LINE
  5
9A
100
AcDbEntity
  8
0
  6
Continuous
 62
               7
100
AcDbLine
 10
315.17841967598304
 20
111.50112727452338
 30
0.0
 11
315.57841967598449
 21
111.73206738219884
 31
0.0
  0
LINE
  5
9B
100
AcDbEntity
  8
0
  6
Continuous
 62
               7
100
AcDbLine
 10
316.57841967598449
 20
113.4641181897679
 30
0.0
 11
316.57841967598449
 21
113.92599840511971
 31
0.0
  0
LINE
  5
9C
100
AcDbEntity
  8
0
  6
Continuous
 62
               7
100
AcDbLine
 10
315.17841967598304
 20
114.27240856663335
 30
0.0
 11
315.57841967598449
 21
114.50334867430925
 31
0.0
  0
LINE
  5
9D
100
AcDbEntity
  8
0
  6
Continuous
 62
               7
100
AcDbLine
 10
314.67841967598304
 20
112.82903289365927
 30
0.0
 11
314.17841967598304
 21
112.54035775906428
 31
0.0
  0
LINE
  5
9E
100
AcDbEntity
  8
0
  6
Continuous
 62
               7
100
AcDbLine
 10
315.17841967598304
 20
113.69505829744381
 30
0.0
 11
315.17841967598304
 21
114.27240856663335
 31
0.0
  0
LINE
  5
9F
100
AcDbEntity
  8
0
  6
Continuous
 62
               7
100
AcDbLine
 10
316.07841967598449
 20
113.17544305517291
 30
0.0
 11
316.57841967598449
 21
113.4641181897679
 31
0.0
  0
LINE
  5
A0
100
AcDbEntity
  8
0
  6
Continuous
 62
               7
100
AcDbLine
 10
315.57841967598449
 20
112.30941765138883
 30
0.0
 11
315.57841967598449
 21
111.73206738219884
 31
0.0
  0
LINE
  5
A1
100
AcDbEntity
  8
0
  6
Continuous
 62
               7
100
AcDbLine
 10
315.95341967598449
 20
113.5651544868762
 30
0.0
 11
316.57841967598449
 21
113.92599840511971
 31
0.0
  0
LINE
  5
A2
100
AcDbEntity
  8
0
  6
Continuous
 62
               7
100
AcDbLine
 10
315.57841967598449
 20
113.78166083782176
 30
0.0
 11
315.57841967598449
 21
114.50334867430925
 31
0.0
  0
LINE
  5
A3
100
AcDbEntity
  8
0
  6
Continuous
 62
               7
100
AcDbLine
 10
315.17841967598304
 20
112.22281511101042
 30
0.0
 11
315.17841967598304
 21
112.07847754371292
 31
0.0
  0
LINE
  5
A4
100
AcDbEntity
  8
0
  6
Continuous
 62
               7
100
AcDbLine
 10
314.80341967598304
 20
112.43932146195644
 30
0.0
 11
314.17841967598304
 21
112.07847754371292
 31
0.0
  0
LINE
  5
A5
100
AcDbEntity
  8
0
  6
Continuous
 62
               7
100
AcDbLine
 10
315.57841967598449
 20
111.73206738219884
 30
0.0
 11
315.17841967598304
 21
111.9630074898752
 31
0.0
  0
LINE
  5
A6
100
AcDbEntity
  8
0
  6
Continuous
 62
               7
100
AcDbLine
 10
316.57841967598449
 20
113.4641181897679
 30
0.0
 11
316.17841967598304
 21
113.69505829744381
 31
0.0
  0
LINE
  5
A7
100
AcDbEntity
  8
0
  6
Continuous
 62
               7
100
AcDbLine
 10
323.55285544143896
 20
102.17444218652886
 30
0.0
 11
323.55285544143896
 21
101.59709191733933
 31
0.0
  0
LINE
  5
A8
100
AcDbEntity
  8
0
  6
Continuous
 62
               7
100
AcDbLine
 10
323.55285544143896
 20
101.59709191733933
 30
0.0
 11
323.9528554414386
 21
101.82803202501478
 31
0.0
  0
LINE
  5
A9
100
AcDbEntity
  8
0
  6
Continuous
 62
               7
100
AcDbLine
 10
324.9528554414386
 20
103.56008283258384
 30
0.0
 11
324.9528554414386
 21
104.02196304793566
 31
0.0
  0
LINE
  5
AA
100
AcDbEntity
  8
0
  6
Continuous
 62
               7
100
AcDbLine
 10
323.55285544143896
 20
104.36837320944929
 30
0.0
 11
323.9528554414386
 21
104.59931331712519
 31
0.0
  0
LINE
  5
AB
100
AcDbEntity
  8
0
  6
Continuous
 62
               7
100
AcDbLine
 10
323.55285544143896
 20
103.79102294025975
 30
0.0
 11
323.55285544143896
 21
104.36837320944929
 31
0.0
  0
LINE
  5
AC
100
AcDbEntity
  8
0
  6
Continuous
 62
               7
100
AcDbLine
 10
324.4528554414386
 20
103.27140769798885
 30
0.0
 11
324.9528554414386
 21
103.56008283258384
 31
0.0
  0
LINE
  5
AD
100
AcDbEntity
  8
0
  6
Continuous
 62
               7
100
AcDbLine
 10
323.9528554414386
 20
102.40538229420477
 30
0.0
 11
323.9528554414386
 21
101.82803202501478
 31
0.0
  0
LINE
  5
AE
100
AcDbEntity
  8
0
  6
Continuous
 62
               7
100
AcDbLine
 10
324.3278554414386
 20
103.66111912969214
 30
0.0
 11
324.9528554414386
 21
104.02196304793566
 31
0.0
  0
LINE
  5
AF
100
AcDbEntity
  8
0
  6
Continuous
 62
               7
100
AcDbLine
 10
323.9528554414386
 20
103.8776254806377
 30
0.0
 11
323.9528554414386
 21
104.59931331712519
 31
0.0
  0
LINE
  5
B0
100
AcDbEntity
  8
0
  6
Continuous
 62
               7
100
AcDbLine
 10
323.55285544143896
 20
102.31877975382636
 30
0.0
 11
323.55285544143896
 21
102.17444218652886
 31
0.0
  0
LINE
  5
B1
100
AcDbEntity
  8
0
  6
Continuous
 62
               7
100
AcDbLine
 10
323.9528554414386
 20
101.82803202501478
 30
0.0
 11
323.55285544143896
 21
102.05897213269114
 31
0.0
  0
LINE
  5
B2
100
AcDbEntity
  8
0
  6
Continuous
 62
               7
100
AcDbLine
 10
324.9528554414386
 20
103.56008283258384
 30
0.0
 11
324.55285544143896
 21
103.79102294025975
 31
0.0
  0
LINE
  5
B3
100
AcDbEntity
  8
0
  6
Continuous
 62
               7
100
AcDbLine
 10
314.67373666536457
 20
98.192521944856395
 30
0.0
 11
314.67373666536457
 21
98.654402160208207
 31
0.0
  0
LINE
  5
B4
100
AcDbEntity
  8
0
  6
Continuous
 62
               7
100
AcDbLine
 10
315.67373666536457
 20
98.19252194485685
 30
0.0
 11
315.67373666536457
 21
97.615171675667312
 31
0.0
  0
LINE
  5
B5
100
AcDbEntity
  8
0
  6
Continuous
 62
               7
100
AcDbLine
 10
315.67373666536457
 20
97.615171675667312
 30
0.0
 11
316.07373666536421
 21
97.846111783342764
 31
0.0
  0
LINE
  5
B6
100
AcDbEntity
  8
0
  6
Continuous
 62
               7
100
AcDbLine
 10
317.07373666536421
 20
99.57816259091183
 30
0.0
 11
317.07373666536421
 21
100.04004280626364
 31
0.0
  0
LINE
  5
B7
100
AcDbEntity
  8
0
  6
Continuous
 62
               7
100
AcDbLine
 10
315.67373666536457
 20
100.38645296777727
 30
0.0
 11
316.07373666536421
 21
100.61739307545318
 31
0.0
  0
LINE
  5
B8
100
AcDbEntity
  8
0
  6
Continuous
 62
               7
100
AcDbLine
 10
315.17373666536457
 20
98.943077294803203
 30
0.0
 11
314.67373666536457
 21
98.654402160208207
 31
0.0
  0
LINE
  5
B9
100
AcDbEntity
  8
0
  6
Continuous
 62
               7
100
AcDbLine
 10
315.67373666536457
 20
99.809102698587736
 30
0.0
 11
315.67373666536457
 21
100.38645296777727
 31
0.0
  0
LINE
  5
BA
100
AcDbEntity
  8
0
  6
Continuous
 62
               7
100
AcDbLine
 10
316.57373666536421
 20
99.289487456316834
 30
0.0
 11
317.07373666536421
 21
99.57816259091183
 31
0.0
  0
LINE
  5
BB
100
AcDbEntity
  8
0
  6
Continuous
 62
               7
100
AcDbLine
 10
316.07373666536421
 20
98.423462052532756
 30
0.0
 11
316.07373666536421
 21
97.846111783342764
 31
0.0
  0
LINE
  5
BC
100
AcDbEntity
  8
0
  6
Continuous
 62
               7
100
AcDbLine
 10
316.44873666536421
 20
99.679198888020125
 30
0.0
 11
317.07373666536421
 21
100.04004280626364
 31
0.0
  0
LINE
  5
BD
100
AcDbEntity
  8
0
  6
Continuous
 62
               7
100
AcDbLine
 10
316.07373666536421
 20
99.895705238965689
 30
0.0
 11
316.07373666536421
 21
100.61739307545318
 31
0.0
  0
LINE
  5
BE
100
AcDbEntity
  8
0
  6
Continuous
 62
               7
100
AcDbLine
 10
315.67373666536457
 20
98.336859512154348
 30
0.0
 11
315.67373666536457
 21
98.19252194485685
 31
0.0
  0
LINE
  5
BF
100
AcDbEntity
  8
0
  6
Continuous
 62
               7
100
AcDbLine
 10
315.29873666536457
 20
98.553365863100368
 30
0.0
 11
314.67373666536457
 21
98.19252194485685
 31
0.0
  0
LINE
  5
C0
100
AcDbEntity
  8
0
  6
Continuous
 62
               7
100
AcDbLine
 10
316.07373666536421
 20
97.846111783342764
 30
0.0
 11
315.67373666536457
 21
98.077051891019124
 31
0.0
  0
LINE
  5
C1
100
AcDbEntity
  8
0
  6
Continuous
 62
               7
100
AcDbLine
 10
317.07373666536421
 20
99.57816259091183
 30
0.0
 11
316.67373666536457
 21
99.809102698587736
 31
0.0
  0
LINE
  5
C2
100
AcDbEntity
  8
0
  6
Continuous
 62
               7
100
AcDbLine
 10
322.82116291599539
 20
107.72318068200198
 30
0.0
 11
322.82116291599539
 21
88.429072583642352
 31
0.0
  0
LINE
  5
C3
100
AcDbEntity
  8
0
  6
Continuous
 62
               7
100
AcDbLine
 10
355.34978809149231
 20
70.757454671704778
 30
0.0
 11
354.94978809149086
 21
70.988394779380684
 31
0.0
  0
LINE
  5
C4
100
AcDbEntity
  8
0
  6
Continuous
 62
               7
100
AcDbLine
 10
355.8497880914905
 20
71.623480075489312
 30
0.0
 11
356.34978809149231
 21
71.33480494089477
 31
0.0
  0
LINE
  5
C5
100
AcDbEntity
  8
0
  6
Continuous
 62
               7
100
AcDbLine
 10
356.34978809149231
 20
71.33480494089477
 30
0.0
 11
356.34978809149231
 21
71.796685156246582
 31
0.0
  0
LINE
  5
C6
100
AcDbEntity
  8
0
  6
Continuous
 62
               7
100
AcDbLine
 10
355.34978809149231
 20
73.528735963815649
 30
0.0
 11
354.94978809149086
 21
73.759676071491555
 31
0.0
  0
LINE
  5
C7
100
AcDbEntity
  8
0
  6
Continuous
 62
               7
100
AcDbLine
 10
353.94978809149086
 20
72.720445586949751
 30
0.0
 11
353.94978809149086
 21
73.182325802301563
 31
0.0
  0
LINE
  5
C8
100
AcDbEntity
  8
0
  6
Continuous
 62
               7
100
AcDbLine
 10
354.94978809149086
 20
71.565745048570221
 30
0.0
 11
354.94978809149086
 21
70.988394779380684
 31
0.0
  0
LINE
  5
C9
100
AcDbEntity
  8
0
  6
Continuous
 62
               7
100
AcDbLine
 10
354.44978809149086
 20
72.431770452354755
 30
0.0
 11
353.94978809149086
 21
72.720445586949751
 31
0.0
  0
LINE
  5
CA
100
AcDbEntity
  8
0
  6
Continuous
 62
               7
100
AcDbLine
 10
355.34978809149231
 20
72.951385694625202
 30
0.0
 11
355.34978809149231
 21
73.528735963815649
 31
0.0
  0
LINE
  5
CB
100
AcDbEntity
  8
0
  6
Continuous
 62
               7
100
AcDbLine
 10
355.8497880914905
 20
72.085360290841123
 30
0.0
 11
356.34978809149231
 21
71.796685156246582
 31
0.0
  0
LINE
  5
CC
100
AcDbEntity
  8
0
  6
Continuous
 62
               7
100
AcDbLine
 10
354.94978809149086
 20
73.037988235004065
 30
0.0
 11
354.94978809149086
 21
73.759676071491555
 31
0.0
  0
LINE
  5
CD
100
AcDbEntity
  8
0
  6
Continuous
 62
               7
100
AcDbLine
 10
354.57478809149268
 20
72.82148188405759
 30
0.0
 11
353.94978809149086
 21
73.182325802302017
 31
0.0
  0
LINE
  5
CE
100
AcDbEntity
  8
0
  6
Continuous
 62
               7
100
AcDbLine
 10
355.72478809149231
 20
71.695648859138288
 30
0.0
 11
355.8497880914905
 21
71.623480075489312
 31
0.0
  0
LINE
  5
CF
100
AcDbEntity
  8
0
  6
Continuous
 62
               7
100
AcDbLine
 10
355.3497880914905
 20
71.479142508191813
 30
0.0
 11
355.3497880914905
 21
70.757454671704778
 31
0.0
  0
LINE
  5
D0
100
AcDbEntity
  8
0
  6
Continuous
 62
               7
100
AcDbLine
 10
356.34978809149231
 20
71.796685156246582
 30
0.0
 11
355.94978809149086
 21
71.565745048570676
 31
0.0
  0
LINE
  5
D1
100
AcDbEntity
  8
0
  6
Continuous
 62
               7
100
AcDbLine
 10
355.34978809149231
 20
73.528735963815649
 30
0.0
 11
354.94978809149086
 21
73.297795856139288
 31
0.0
  0
LINE
  5
D2
100
AcDbEntity
  8
0
  6
Continuous
 62
               7
100
AcDbLine
 10
347.47937192918778
 20
75.465650054512167
 30
0.0
 11
347.07937192918814
 21
75.696590162188073
 31
0.0
  0
LINE
  5
D3
100
AcDbEntity
  8
0
  6
Continuous
 62
               7
100
AcDbLine
 10
347.97937192918778
 20
76.331675458296701
 30
0.0
 11
348.47937192918778
 21
76.043000323702159
 31
0.0
  0
LINE
  5
D4
100
AcDbEntity
  8
0
  6
Continuous
 62
               7
100
AcDbLine
 10
348.47937192918778
 20
76.043000323702159
 30
0.0
 11
348.47937192918778
 21
76.504880539053971
 31
0.0
  0
LINE
  5
D5
100
AcDbEntity
  8
0
  6
Continuous
 62
               7
100
AcDbLine
 10
347.47937192918778
 20
78.236931346623038
 30
0.0
 11
347.07937192918814
 21
78.467871454298944
 31
0.0
  0
LINE
  5
D6
100
AcDbEntity
  8
0
  6
Continuous
 62
               7
100
AcDbLine
 10
346.07937192918814
 20
77.42864096975714
 30
0.0
 11
346.07937192918814
 21
77.890521185108952
 31
0.0
  0
LINE
  5
D7
100
AcDbEntity
  8
0
  6
Continuous
 62
               7
100
AcDbLine
 10
347.07937192918814
 20
76.273940431377611
 30
0.0
 11
347.07937192918814
 21
75.696590162188073
 31
0.0
  0
LINE
  5
D8
100
AcDbEntity
  8
0
  6
Continuous
 62
               7
100
AcDbLine
 10
346.57937192918814
 20
77.139965835162144
 30
0.0
 11
346.07937192918814
 21
77.42864096975714
 31
0.0
  0
LINE
  5
D9
100
AcDbEntity
  8
0
  6
Continuous
 62
               7
100
AcDbLine
 10
347.47937192918778
 20
77.659581077432591
 30
0.0
 11
347.47937192918778
 21
78.236931346623038
 31
0.0
  0
LINE
  5
DA
100
AcDbEntity
  8
0
  6
Continuous
 62
               7
100
AcDbLine
 10
347.97937192918778
 20
76.793555673648513
 30
0.0
 11
348.47937192918778
 21
76.504880539053971
 31
0.0
  0
LINE
  5
DB
100
AcDbEntity
  8
0
  6
Continuous
 62
               7
100
AcDbLine
 10
347.07937192918814
 20
77.746183617811454
 30
0.0
 11
347.07937192918814
 21
78.467871454298944
 31
0.0
  0
LINE
  5
DC
100
AcDbEntity
  8
0
  6
Continuous
 62
               7
100
AcDbLine
 10
346.70437192918814
 20
77.529677266864979
 30
0.0
 11
346.07937192918814
 21
77.890521185109407
 31
0.0
  0
LINE
  5
DD
100
AcDbEntity
  8
0
  6
Continuous
 62
               7
100
AcDbLine
 10
347.85437192918778
 20
76.403844241945677
 30
0.0
 11
347.97937192918778
 21
76.331675458296701
 31
0.0
  0
LINE
  5
DE
100
AcDbEntity
  8
0
  6
Continuous
 62
               7
100
AcDbLine
 10
347.47937192918778
 20
76.187337890999203
 30
0.0
 11
347.47937192918778
 21
75.465650054512167
 31
0.0
  0
LINE
  5
DF
100
AcDbEntity
  8
0
  6
Continuous
 62
               7
100
AcDbLine
 10
348.47937192918778
 20
76.504880539053971
 30
0.0
 11
348.07937192918814
 21
76.273940431378065
 31
0.0
  0
LINE
  5
E0
100
AcDbEntity
  8
0
  6
Continuous
 62
               7
100
AcDbLine
 10
347.47937192918778
 20
78.236931346623038
 30
0.0
 11
347.07937192918814
 21
78.005991238946677
 31
0.0
  0
LINE
  5
E1
100
AcDbEntity
  8
0
  6
Continuous
 62
               7
100
AcDbLine
 10
355.34978809149231
 20
56.337727917197896
 30
0.0
 11
354.94978809149086
 21
56.568668024873801
 31
0.0
  0
LINE
  5
E2
100
AcDbEntity
  8
0
  6
Continuous
 62
               7
100
AcDbLine
 10
355.8497880914905
 20
57.203753320982429
 30
0.0
 11
356.34978809149231
 21
56.915078186387888
 31
0.0
  0
LINE
  5
E3
100
AcDbEntity
  8
0
  6
Continuous
 62
               7
100
AcDbLine
 10
356.34978809149231
 20
56.915078186387888
 30
0.0
 11
356.34978809149231
 21
57.376958401739699
 31
0.0
  0
LINE
  5
E4
100
AcDbEntity
  8
0
  6
Continuous
 62
               7
100
AcDbLine
 10
355.34978809149231
 20
59.109009209308766
 30
0.0
 11
354.94978809149086
 21
59.339949316984672
 31
0.0
  0
LINE
  5
E5
100
AcDbEntity
  8
0
  6
Continuous
 62
               7
100
AcDbLine
 10
353.94978809149086
 20
58.300718832442868
 30
0.0
 11
353.94978809149086
 21
58.76259904779468
 31
0.0
  0
LINE
  5
E6
100
AcDbEntity
  8
0
  6
Continuous
 62
               7
100
AcDbLine
 10
354.94978809149086
 20
57.146018294063339
 30
0.0
 11
354.94978809149086
 21
56.568668024873801
 31
0.0
  0
LINE
  5
E7
100
AcDbEntity
  8
0
  6
Continuous
 62
               7
100
AcDbLine
 10
354.44978809149086
 20
58.012043697847872
 30
0.0
 11
353.94978809149086
 21
58.300718832442868
 31
0.0
  0
LINE
  5
E8
100
AcDbEntity
  8
0
  6
Continuous
 62
               7
100
AcDbLine
 10
355.34978809149231
 20
58.531658940118319
 30
0.0
 11
355.34978809149231
 21
59.109009209308766
 31
0.0
  0
LINE
  5
E9
100
AcDbEntity
  8
0
  6
Continuous
 62
               7
100
AcDbLine
 10
355.8497880914905
 20
57.665633536334241
 30
0.0
 11
356.34978809149231
 21
57.376958401739699
 31
0.0
  0
LINE
  5
EA
100
AcDbEntity
  8
0
  6
Continuous
 62
               7
100
AcDbLine
 10
354.94978809149086
 20
58.618261480497182
 30
0.0
 11
354.94978809149086
 21
59.339949316984672
 31
0.0
  0
LINE
  5
EB
100
AcDbEntity
  8
0
  6
Continuous
 62
               7
100
AcDbLine
 10
354.57478809149268
 20
58.401755129550708
 30
0.0
 11
353.94978809149086
 21
58.762599047795135
 31
0.0
  0
LINE
  5
EC
100
AcDbEntity
  8
0
  6
Continuous
 62
               7
100
AcDbLine
 10
355.72478809149231
 20
57.275922104631405
 30
0.0
 11
355.8497880914905
 21
57.203753320982429
 31
0.0
  0
LINE
  5
ED
100
AcDbEntity
  8
0
  6
Continuous
 62
               7
100
AcDbLine
 10
355.3497880914905
 20
57.059415753684931
 30
0.0
 11
355.3497880914905
 21
56.337727917197896
 31
0.0
  0
LINE
  5
EE
100
AcDbEntity
  8
0
  6
Continuous
 62
               7
100
AcDbLine
 10
356.34978809149231
 20
57.376958401739699
 30
0.0
 11
355.94978809149086
 21
57.146018294063794
 31
0.0
  0
LINE
  5
EF
100
AcDbEntity
  8
0
  6
Continuous
 62
               7
100
AcDbLine
 10
355.34978809149231
 20
59.109009209308766
 30
0.0
 11
354.94978809149086
 21
58.878069101632406
 31
0.0
  0
LINE
  5
F0
100
AcDbEntity
  8
0
  6
Continuous
 62
               7
100
AcDbLine
 10
347.47937192918778
 20
61.045923300005285
 30
0.0
 11
347.07937192918814
 21
61.276863407681191
 31
0.0
  0
LINE
  5
F1
100
AcDbEntity
  8
0
  6
Continuous
 62
               7
100
AcDbLine
 10
347.97937192918778
 20
61.911948703789818
 30
0.0
 11
348.47937192918778
 21
61.623273569195277
 31
0.0
  0
LINE
  5
F2
100
AcDbEntity
  8
0
  6
Continuous
 62
               7
100
AcDbLine
 10
348.47937192918778
 20
61.623273569195277
 30
0.0
 11
348.47937192918778
 21
62.085153784547089
 31
0.0
  0
LINE
  5
F3
100
AcDbEntity
  8
0
  6
Continuous
 62
               7
100
AcDbLine
 10
347.47937192918778
 20
63.817204592116155
 30
0.0
 11
347.07937192918814
 21
64.048144699792061
 31
0.0
  0
LINE
  5
F4
100
AcDbEntity
  8
0
  6
Continuous
 62
               7
100
AcDbLine
 10
346.07937192918814
 20
63.008914215250257
 30
0.0
 11
346.07937192918814
 21
63.470794430602069
 31
0.0
  0
LINE
  5
F5
100
AcDbEntity
  8
0
  6
Continuous
 62
               7
100
AcDbLine
 10
347.07937192918814
 20
61.854213676870728
 30
0.0
 11
347.07937192918814
 21
61.276863407681191
 31
0.0
  0
LINE
  5
F6
100
AcDbEntity
  8
0
  6
Continuous
 62
               7
100
AcDbLine
 10
346.57937192918814
 20
62.720239080655261
 30
0.0
 11
346.07937192918814
 21
63.008914215250257
 31
0.0
  0
LINE
  5
F7
100
AcDbEntity
  8
0
  6
Continuous
 62
               7
100
AcDbLine
 10
347.47937192918778
 20
63.239854322925709
 30
0.0
 11
347.47937192918778
 21
63.817204592116155
 31
0.0
  0
LINE
  5
F8
100
AcDbEntity
  8
0
  6
Continuous
 62
               7
100
AcDbLine
 10
347.97937192918778
 20
62.37382891914163
 30
0.0
 11
348.47937192918778
 21
62.085153784547089
 31
0.0
  0
LINE
  5
F9
100
AcDbEntity
  8
0
  6
Continuous
 62
               7
100
AcDbLine
 10
347.07937192918814
 20
63.326456863304571
 30
0.0
 11
347.07937192918814
 21
64.048144699792061
 31
0.0
  0
LINE
  5
FA
100
AcDbEntity
  8
0
  6
Continuous
 62
               7
100
AcDbLine
 10
346.70437192918814
 20
63.109950512358097
 30
0.0
 11
346.07937192918814
 21
63.470794430602524
 31
0.0
  0
LINE
  5
FB
100
AcDbEntity
  8
0
  6
Continuous
 62
               7
100
AcDbLine
 10
347.85437192918778
 20
61.984117487438795
 30
0.0
 11
347.97937192918778
 21
61.911948703789818
 31
0.0
  0
LINE
  5
FC
100
AcDbEntity
  8
0
  6
Continuous
 62
               7
100
AcDbLine
 10
347.47937192918778
 20
61.76761113649232
 30
0.0
 11
347.47937192918778
 21
61.045923300005285
 31
0.0
  0
LINE
  5
FD
100
AcDbEntity
  8
0
  6
Continuous
 62
               7
100
AcDbLine
 10
348.47937192918778
 20
62.085153784547089
 30
0.0
 11
348.07937192918814
 21
61.854213676871183
 31
0.0
  0
LINE
  5
FE
100
AcDbEntity
  8
0
  6
Continuous
 62
               7
100
AcDbLine
 10
347.47937192918778
 20
63.817204592116155
 30
0.0
 11
347.07937192918814
 21
63.586264484439795
 31
0.0
  0
LINE
  5
FF
100
AcDbEntity
  8
0
  6
Continuous
 62
               7
100
AcDbLine
 10
355.04621489665931
 20
46.055361831544502
 30
0.0
 11
354.64621489665967
 21
46.286301939220408
 31
0.0
  0
LINE
  5
100
100
AcDbEntity
  8
0
  6
Continuous
 62
               7
100
AcDbLine
 10
353.64621489665967
 20
45.247071454678604
 30
0.0
 11
353.64621489665967
 21
45.708951670030416
 31
0.0
  0
LINE
  5
101
100
AcDbEntity
  8
0
  6
Continuous
 62
               7
100
AcDbLine
 10
354.14621489665967
 20
44.958396320083608
 30
0.0
 11
353.64621489665967
 21
45.247071454678604
 31
0.0
  0
LINE
  5
102
100
AcDbEntity
  8
0
  6
Continuous
 62
               7
100
AcDbLine
 10
355.04621489665931
 20
45.478011562354055
 30
0.0
 11
355.04621489665931
 21
46.055361831544502
 31
0.0
  0
LINE
  5
103
100
AcDbEntity
  8
0
  6
Continuous
 62
               7
100
AcDbLine
 10
354.64621489665967
 20
45.564614102732918
 30
0.0
 11
354.64621489665967
 21
46.286301939220408
 31
0.0
  0
LINE
  5
104
100
AcDbEntity
  8
0
  6
Continuous
 62
               7
100
AcDbLine
 10
354.27121489665967
 20
45.348107751786443
 30
0.0
 11
353.64621489665967
 21
45.708951670030871
 31
0.0
  0
LINE
  5
105
100
AcDbEntity
  8
0
  6
Continuous
 62
               7
100
AcDbLine
 10
355.04621489665931
 20
46.055361831544502
 30
0.0
 11
354.64621489665967
 21
45.824421723868141
 31
0.0
  0
LINE
  5
106
100
AcDbEntity
  8
0
  6
Continuous
 62
               7
100
AcDbLine
 10
347.17579873435659
 20
47.992275922241021
 30
0.0
 11
346.77579873435513
 21
48.223216029916927
 31
0.0
  0
LINE
  5
107
100
AcDbEntity
  8
0
  6
Continuous
 62
               7
100
AcDbLine
 10
347.67579873435477
 20
48.858301326025554
 30
0.0
 11
348.17579873435659
 21
48.569626191431013
 31
0.0
  0
LINE
  5
108
100
AcDbEntity
  8
0
  6
Continuous
 62
               7
100
AcDbLine
 10
348.17579873435659
 20
48.569626191431013
 30
0.0
 11
348.17579873435659
 21
49.031506406782825
 31
0.0
  0
LINE
  5
109
100
AcDbEntity
  8
0
  6
Continuous
 62
               7
100
AcDbLine
 10
347.17579873435659
 20
50.763557214351891
 30
0.0
 11
346.77579873435513
 21
50.994497322027797
 31
0.0
  0
LINE
  5
10A
100
AcDbEntity
  8
0
  6
Continuous
 62
               7
100
AcDbLine
 10
345.77579873435513
 20
49.955266837485993
 30
0.0
 11
345.77579873435513
 21
50.417147052837805
 31
0.0
  0
LINE
  5
10B
100
AcDbEntity
  8
0
  6
Continuous
 62
               7
100
AcDbLine
 10
346.77579873435513
 20
48.800566299106464
 30
0.0
 11
346.77579873435513
 21
48.223216029916927
 31
0.0
  0
LINE
  5
10C
100
AcDbEntity
  8
0
  6
Continuous
 62
               7
100
AcDbLine
 10
346.27579873435513
 20
49.666591702890997
 30
0.0
 11
345.77579873435513
 21
49.955266837485993
 31
0.0
  0
LINE
  5
10D
100
AcDbEntity
  8
0
  6
Continuous
 62
               7
100
AcDbLine
 10
347.17579873435659
 20
50.186206945161445
 30
0.0
 11
347.17579873435659
 21
50.763557214351891
 31
0.0
  0
LINE
  5
10E
100
AcDbEntity
  8
0
  6
Continuous
 62
               7
100
AcDbLine
 10
347.67579873435477
 20
49.320181541377366
 30
0.0
 11
348.17579873435659
 21
49.031506406782825
 31
0.0
  0
LINE
  5
10F
100
AcDbEntity
  8
0
  6
Continuous
 62
               7
100
AcDbLine
 10
346.77579873435513
 20
50.272809485540307
 30
0.0
 11
346.77579873435513
 21
50.994497322027797
 31
0.0
  0
LINE
  5
110
100
AcDbEntity
  8
0
  6
Continuous
 62
               7
100
AcDbLine
 10
346.40079873435695
 20
50.056303134593833
 30
0.0
 11
345.77579873435513
 21
50.41714705283826
 31
0.0
  0
LINE
  5
111
100
AcDbEntity
  8
0
  6
Continuous
 62
               7
100
AcDbLine
 10
347.55079873435659
 20
48.93047010967453
 30
0.0
 11
347.67579873435477
 21
48.858301326025554
 31
0.0
  0
LINE
  5
112
100
AcDbEntity
  8
0
  6
Continuous
 62
               7
100
AcDbLine
 10
347.17579873435477
 20
48.713963758728056
 30
0.0
 11
347.17579873435477
 21
47.992275922241021
 31
0.0
  0
LINE
  5
113
100
AcDbEntity
  8
0
  6
Continuous
 62
               7
100
AcDbLine
 10
348.17579873435659
 20
49.031506406782825
 30
0.0
 11
347.77579873435513
 21
48.800566299106919
 31
0.0
  0
LINE
  5
114
100
AcDbEntity
  8
0
  6
Continuous
 62
               7
100
AcDbLine
 10
347.17579873435659
 20
50.763557214351891
 30
0.0
 11
346.77579873435513
 21
50.532617106675531
 31
0.0
  0
LINE
  5
115
100
AcDbEntity
  8
0
  6
Continuous
 62
               7
100
AcDbLine
 10
323.57923213296942
 20
88.10612028871779
 30
0.0
 11
323.57923213296942
 21
87.528770019528253
 31
0.0
  0
LINE
  5
116
100
AcDbEntity
  8
0
  6
Continuous
 62
               7
100
AcDbLine
 10
323.57923213296942
 20
87.528770019528253
 30
0.0
 11
323.97923213296906
 21
87.759710127203704
 31
0.0
  0
LINE
  5
117
100
AcDbEntity
  8
0
  6
Continuous
 62
               7
100
AcDbLine
 10
324.97923213296906
 20
89.49176093477277
 30
0.0
 11
324.97923213296906
 21
89.953641150124582
 31
0.0
  0
LINE
  5
118
100
AcDbEntity
  8
0
  6
Continuous
 62
               7
100
AcDbLine
 10
323.57923213296942
 20
90.300051311638214
 30
0.0
 11
323.97923213296906
 21
90.53099141931412
 31
0.0
  0
LINE
  5
119
100
AcDbEntity
  8
0
  6
Continuous
 62
               7
100
AcDbLine
 10
323.57923213296942
 20
89.722701042448676
 30
0.0
 11
323.57923213296942
 21
90.300051311638214
 31
0.0
  0
LINE
  5
11A
100
AcDbEntity
  8
0
  6
Continuous
 62
               7
100
AcDbLine
 10
324.47923213296906
 20
89.203085800177774
 30
0.0
 11
324.97923213296906
 21
89.49176093477277
 31
0.0
  0
LINE
  5
11B
100
AcDbEntity
  8
0
  6
Continuous
 62
               7
100
AcDbLine
 10
323.97923213296906
 20
88.337060396393696
 30
0.0
 11
323.97923213296906
 21
87.759710127203704
 31
0.0
  0
LINE
  5
11C
100
AcDbEntity
  8
0
  6
Continuous
 62
               7
100
AcDbLine
 10
324.35423213296906
 20
89.592797231881065
 30
0.0
 11
324.97923213296906
 21
89.953641150124582
 31
0.0
  0
LINE
  5
11D
100
AcDbEntity
  8
0
  6
Continuous
 62
               7
100
AcDbLine
 10
323.97923213296906
 20
89.80930358282663
 30
0.0
 11
323.97923213296906
 21
90.53099141931412
 31
0.0
  0
LINE
  5
11E
100
AcDbEntity
  8
0
  6
Continuous
 62
               7
100
AcDbLine
 10
323.57923213296942
 20
88.250457856015288
 30
0.0
 11
323.57923213296942
 21
88.10612028871779
 31
0.0
  0
LINE
  5
11F
100
AcDbEntity
  8
0
  6
Continuous
 62
               7
100
AcDbLine
 10
323.20423213296942
 20
88.466964206961308
 30
0.0
 11
322.57923213296942
 21
88.10612028871779
 31
0.0
  0
LINE
  5
120
100
AcDbEntity
  8
0
  6
Continuous
 62
               7
100
AcDbLine
 10
323.97923213296906
 20
87.759710127203704
 30
0.0
 11
323.57923213296942
 21
87.990650234880064
 31
0.0
  0
LINE
  5
121
100
AcDbEntity
  8
0
  6
Continuous
 62
               7
100
AcDbLine
 10
324.97923213296906
 20
89.49176093477277
 30
0.0
 11
324.57923213296942
 21
89.722701042448676
 31
0.0
  0
LINE
  5
122
100
AcDbEntity
  8
0
  6
Continuous
 62
               7
100
AcDbLine
 10
314.70011335689503
 20
84.124200047045321
 30
0.0
 11
314.70011335689503
 21
84.586080262397132
 31
0.0
  0
LINE
  5
123
100
AcDbEntity
  8
0
  6
Continuous
 62
               7
100
AcDbLine
 10
315.70011335689503
 20
84.124200047045775
 30
0.0
 11
315.70011335689503
 21
83.546849777856238
 31
0.0
  0
LINE
  5
124
100
AcDbEntity
  8
0
  6
Continuous
 62
               7
100
AcDbLine
 10
315.70011335689503
 20
83.546849777856238
 30
0.0
 11
316.10011335689467
 21
83.777789885531689
 31
0.0
  0
LINE
  5
125
100
AcDbEntity
  8
0
  6
Continuous
 62
               7
100
AcDbLine
 10
317.10011335689467
 20
85.509840693100756
 30
0.0
 11
317.10011335689467
 21
85.971720908452568
 31
0.0
  0
LINE
  5
126
100
AcDbEntity
  8
0
  6
Continuous
 62
               7
100
AcDbLine
 10
315.70011335689503
 20
86.318131069966199
 30
0.0
 11
316.10011335689467
 21
86.549071177642105
 31
0.0
  0
LINE
  5
127
100
AcDbEntity
  8
0
  6
Continuous
 62
               7
100
AcDbLine
 10
315.20011335689503
 20
84.874755396992128
 30
0.0
 11
314.70011335689503
 21
84.586080262397132
 31
0.0
  0
LINE
  5
128
100
AcDbEntity
  8
0
  6
Continuous
 62
               7
100
AcDbLine
 10
315.70011335689503
 20
85.740780800776662
 30
0.0
 11
315.70011335689503
 21
86.318131069966199
 31
0.0
  0
LINE
  5
129
100
AcDbEntity
  8
0
  6
Continuous
 62
               7
100
AcDbLine
 10
316.60011335689467
 20
85.22116555850576
 30
0.0
 11
317.10011335689467
 21
85.509840693100756
 31
0.0
  0
LINE
  5
12A
100
AcDbEntity
  8
0
  6
Continuous
 62
               7
100
AcDbLine
 10
316.10011335689467
 20
84.355140154721681
 30
0.0
 11
316.10011335689467
 21
83.777789885531689
 31
0.0
  0
LINE
  5
12B
100
AcDbEntity
  8
0
  6
Continuous
 62
               7
100
AcDbLine
 10
316.47511335689467
 20
85.61087699020905
 30
0.0
 11
317.10011335689467
 21
85.971720908452568
 31
0.0
  0
LINE
  5
12C
100
AcDbEntity
  8
0
  6
Continuous
 62
               7
100
AcDbLine
 10
316.10011335689467
 20
85.827383341154615
 30
0.0
 11
316.10011335689467
 21
86.549071177642105
 31
0.0
  0
LINE
  5
12D
100
AcDbEntity
  8
0
  6
Continuous
 62
               7
100
AcDbLine
 10
315.70011335689503
 20
84.268537614343273
 30
0.0
 11
315.70011335689503
 21
84.124200047045775
 31
0.0
  0
LINE
  5
12E
100
AcDbEntity
  8
0
  6
Continuous
 62
               7
100
AcDbLine
 10
315.32511335689503
 20
84.485043965289293
 30
0.0
 11
314.70011335689503
 21
84.124200047045775
 31
0.0
  0
LINE
  5
12F
100
AcDbEntity
  8
0
  6
Continuous
 62
               7
100
AcDbLine
 10
316.10011335689467
 20
83.777789885531689
 30
0.0
 11
315.70011335689503
 21
84.00872999320805
 31
0.0
  0
LINE
  5
130
100
AcDbEntity
  8
0
  6
Continuous
 62
               7
100
AcDbLine
 10
317.10011335689467
 20
85.509840693100756
 30
0.0
 11
316.70011335689503
 21
85.740780800776662
 31
0.0
  0
LINE
  5
131
100
AcDbEntity
  8
0
  6
Continuous
 62
               7
100
AcDbLine
 10
341.25402484185304
 20
149.63591862081958
 30
0.0
 11
341.25402484185304
 21
149.38880571372343
 31
0.0
  0
LINE
  5
132
100
AcDbEntity
  8
0
  6
Continuous
 62
               7
100
AcDbLine
 10
337.25402484185668
 20
149.63591862081913
 30
0.0
 11
337.25402484185668
 21
149.38880571372343
 31
0.0
  0
LINE
  5
133
100
AcDbEntity
  8
0
  6
Continuous
 62
               7
100
AcDbLine
 10
338.59131945038769
 20
151.22340923020116
 30
0.0
 11
337.98443914467805
 21
151.86652892447742
 31
0.0
  0
LINE
  5
134
100
AcDbEntity
  8
0
  6
Continuous
 62
               7
100
AcDbLine
 10
340.48443914464895
 20
151.86652892447742
 30
0.0
 11
339.8775588389484
 21
151.22340923019161
 31
0.0
  0
LINE
  5
135
100
AcDbEntity
  8
0
  6
Continuous
 62
               7
100
AcDbLine
 10
339.8775588389484
 20
151.22340923019161
 30
0.0
 11
338.59131945042589
 21
151.22340923015977
 31
0.0
  0
LINE
  5
136
100
AcDbEntity
  8
0
  6
Continuous
 62
               7
100
AcDbLine
 10
338.55369043871303
 20
152.74693285663002
 30
0.0
 11
337.9468101330034
 21
152.10381316235376
 31
0.0
  0
LINE
  5
137
100
AcDbEntity
  8
0
  6
Continuous
 62
               7
100
AcDbLine
 10
340.44681013297429
 20
152.10381316235376
 30
0.0
 11
339.83992982727375
 21
152.74693285663957
 31
0.0
  0
LINE
  5
138
100
AcDbEntity
  8
0
  6
Continuous
 62
               7
100
AcDbLine
 10
339.83992982727375
 20
152.74693285663957
 30
0.0
 11
338.55369043875123
 21
152.74693285667141
 31
0.0
  0
CIRCLE
  5
139
100
AcDbEntity
  8
0
  6
Continuous
 62
               7
100
AcDbCircle
 10
107.5671171794414
 20
221.19377957232669
 30
0.0
 40
3.5
  0
CIRCLE
  5
13A
100
AcDbEntity
  8
0
  6
Continuous
 62
               7
100
AcDbCircle
 10
107.5671171794414
 20
186.19377957232669
 30
0.0
 40
3.5
  0
CIRCLE
  5
13B
100
AcDbEntity
  8
0
  6
Continuous
 62
               7
100
AcDbCircle
 10
107.5671171794414
 20
151.19377957232624
 30
0.0
 40
3.5
  0
CIRCLE
  5
13C
100
AcDbEntity
  8
0
  6
Continuous
 62
               7
100
AcDbCircle
 10
89.567117179441397
 20
221.19377957232851
 30
0.0
 40
3.5
  0
CIRCLE
  5
13D
100
AcDbEntity
  8
0
  6
Continuous
 62
               7
100
AcDbCircle
 10
89.567117179442306
 20
186.19377957232851
 30
0.0
 40
3.5
  0
CIRCLE
  5
13E
100
AcDbEntity
  8
0
  6
Continuous
 62
               7
100
AcDbCircle
 10
89.567117179442306
 20
151.19377957232805
 30
0.0
 40
3.5
  0
CIRCLE
  5
13F
100
AcDbEntity
  8
0
  6
Continuous
 62
               7
100
AcDbCircle
 10
173.56711717944322
 20
128.19377957232669
 30
0.0
 40
3.5
  0
CIRCLE
  5
140
100
AcDbEntity
  8
0
  6
Continuous
 62
               7
100
AcDbCircle
 10
173.56711717944322
 20
93.19377957232669
 30
0.0
 40
3.5
  0
CIRCLE
  5
141
100
AcDbEntity
  8
0
  6
Continuous
 62
               7
100
AcDbCircle
 10
173.56711717944322
 20
58.193779572326235
 30
0.0
 40
3.5
  0
CIRCLE
  5
142
100
AcDbEntity
  8
0
  6
Continuous
 62
               7
100
AcDbCircle
 10
191.56711717944322
 20
128.19377957232851
 30
0.0
 40
3.5
  0
CIRCLE
  5
143
100
AcDbEntity
  8
0
  6
Continuous
 62
               7
100
AcDbCircle
 10
191.56711717944231
 20
93.193779572328509
 30
0.0
 40
3.5
  0
CIRCLE
  5
144
100
AcDbEntity
  8
0
  6
Continuous
 62
               7
100
AcDbCircle
 10
191.56711717944231
 20
58.193779572328054
 30
0.0
 40
3.5
  0
ARC
  5
145
100
AcDbEntity
  8
0
  6
Continuous
 62
               7
100
AcDbCircle
 10
323.62460306884475
 20
107.83666456267215
 30
0.0
 40
0.5
100
AcDbArc
 50
119.99999999999895
 51
180.0
  0
ARC
  5
146
100
AcDbEntity
  8
0
  6
Continuous
 62
               7
100
AcDbCircle
 10
323.3746030688593
 20
107.98100212997102
 30
0.0
 40
1.5
100
AcDbArc
 50
119.99999999999997
 51
180.0
  0
ARC
  5
147
100
AcDbEntity
  8
0
  6
Continuous
 62
               7
100
AcDbCircle
 10
333.11519953899858
 20
142.22350521936792
 30
0.0
 40
0.5
100
AcDbArc
 50
0.0
 51
119.99999999999895
  0
ARC
  5
148
100
AcDbEntity
  8
0
  6
Continuous
 62
               7
100
AcDbCircle
 10
333.4014389275211
 20
141.93483008471654
 30
0.0
 40
1.5
100
AcDbArc
 50
0.0
 51
119.99999999999997
  0
ARC
  5
149
100
AcDbEntity
  8
0
  6
Continuous
 62
               7
100
AcDbCircle
 10
333.00831923322164
 20
142.03838309948756
 30
0.0
 40
2.5
100
AcDbArc
 50
0.0
 51
119.99999999999991
  0
ARC
  5
14A
100
AcDbEntity
  8
0
  6
Continuous
 62
               7
100
AcDbCircle
 10
332.50831923322164
 20
141.87312271144779
 30
0.0
 40
3.0
100
AcDbArc
 50
0.0
 51
119.99999999999997
  0
ARC
  5
14B
100
AcDbEntity
  8
0
  6
Continuous
 62
               7
100
AcDbCircle
 10
338.5162262615753
 20
130.43074287655614
 30
0.0
 40
0.25
100
AcDbArc
 50
0.0
 51
90.000000000000028
  0
ARC
  5
14C
100
AcDbEntity
  8
0
  6
Continuous
 62
               7
100
AcDbCircle
 10
338.7662262615753
 20
130.68074287655614
 30
0.0
 40
0.5
100
AcDbArc
 50
0.0
 51
90.000000000000028
  0
ARC
  5
14D
100
AcDbEntity
  8
0
  6
Continuous
 62
               7
100
AcDbCircle
 10
334.58863904204497
 20
131.18074287655614
 30
0.0
 40
0.5
100
AcDbArc
 50
180.0
 51
270.0
  0
ARC
  5
14E
100
AcDbEntity
  8
0
  6
Continuous
 62
               7
100
AcDbCircle
 10
334.83863904204497
 20
131.43074287655614
 30
0.0
 40
0.25
100
AcDbArc
 50
180.0
 51
270.0
  0
ARC
  5
14F
100
AcDbEntity
  8
0
  6
Continuous
 62
               7
100
AcDbCircle
 10
323.67804322173413
 20
107.80581087604347
 30
0.0
 40
1.5
100
AcDbArc
 50
119.99999999999997
 51
180.0
  0
ARC
  5
150
100
AcDbEntity
  8
0
  6
Continuous
 62
               7
100
AcDbCircle
 10
323.82116291599539
 20
107.72318068200198
 30
0.0
 40
1.0
100
AcDbArc
 50
119.99999999999973
 51
180.0
  0
ARC
  5
151
100
AcDbEntity
  8
0
  6
Continuous
 62
               7
100
AcDbCircle
 10
322.05753845205743
 20
117.67697853911582
 30
0.0
 40
1.0
100
AcDbArc
 50
300.00000000000051
 51
0.0
  0
ARC
  5
152
100
AcDbEntity
  8
0
  6
Continuous
 62
               7
100
AcDbCircle
 10
324.45753845205888
 20
116.29133789306084
 30
0.0
 40
1.0
100
AcDbArc
 50
119.99999999999973
 51
180.00000000000327
  0
ARC
  5
153
100
AcDbEntity
  8
0
  6
Continuous
 62
               7
100
AcDbCircle
 10
323.70753845205888
 20
117.76358107949378
 30
0.0
 40
0.25
100
AcDbArc
 50
180.0
 51
299.99999999998926
  0
ARC
  5
154
100
AcDbEntity
  8
0
  6
Continuous
 62
               7
100
AcDbCircle
 10
322.80753845205743
 20
116.20473535268243
 30
0.0
 40
0.25
100
AcDbArc
 50
0.0
 51
120.00000000000055
  0
ARC
  5
155
100
AcDbEntity
  8
0
  6
Continuous
 62
               7
100
AcDbCircle
 10
314.17841967598304
 20
113.69505829744381
 30
0.0
 40
1.0
100
AcDbArc
 50
300.00000000000051
 51
0.0
  0
ARC
  5
156
100
AcDbEntity
  8
0
  6
Continuous
 62
               7
100
AcDbCircle
 10
316.57841967598449
 20
112.30941765138883
 30
0.0
 40
1.0
100
AcDbArc
 50
119.99999999999973
 51
180.00000000000327
  0
ARC
  5
157
100
AcDbEntity
  8
0
  6
Continuous
 62
               7
100
AcDbCircle
 10
315.82841967598449
 20
113.78166083782176
 30
0.0
 40
0.25
100
AcDbArc
 50
180.0
 51
299.99999999998926
  0
ARC
  5
158
100
AcDbEntity
  8
0
  6
Continuous
 62
               7
100
AcDbCircle
 10
314.92841967598304
 20
112.22281511101042
 30
0.0
 40
0.25
100
AcDbArc
 50
0.0
 51
120.00000000000055
  0
ARC
  5
159
100
AcDbEntity
  8
0
  6
Continuous
 62
               7
100
AcDbCircle
 10
324.9528554414386
 20
102.40538229420477
 30
0.0
 40
1.0
100
AcDbArc
 50
119.99999999999973
 51
180.00000000000327
  0
ARC
  5
15A
100
AcDbEntity
  8
0
  6
Continuous
 62
               7
100
AcDbCircle
 10
324.2028554414386
 20
103.8776254806377
 30
0.0
 40
0.25
100
AcDbArc
 50
180.0
 51
299.99999999998926
  0
ARC
  5
15B
100
AcDbEntity
  8
0
  6
Continuous
 62
               7
100
AcDbCircle
 10
314.67373666536457
 20
99.809102698587736
 30
0.0
 40
1.0
100
AcDbArc
 50
300.00000000000051
 51
0.0
  0
ARC
  5
15C
100
AcDbEntity
  8
0
  6
Continuous
 62
               7
100
AcDbCircle
 10
317.07373666536421
 20
98.423462052532756
 30
0.0
 40
1.0
100
AcDbArc
 50
119.99999999999973
 51
180.00000000000327
  0
ARC
  5
15D
100
AcDbEntity
  8
0
  6
Continuous
 62
               7
100
AcDbCircle
 10
316.32373666536421
 20
99.895705238965689
 30
0.0
 40
0.25
100
AcDbArc
 50
180.0
 51
299.99999999998926
  0
ARC
  5
15E
100
AcDbEntity
  8
0
  6
Continuous
 62
               7
100
AcDbCircle
 10
315.42373666536457
 20
98.336859512154348
 30
0.0
 40
0.25
100
AcDbArc
 50
0.0
 51
120.00000000000055
  0
ARC
  5
15F
100
AcDbEntity
  8
0
  6
Continuous
 62
               7
100
AcDbCircle
 10
353.94978809149086
 20
71.565745048570221
 30
0.0
 40
1.0
100
AcDbArc
 50
0.0
 51
60.000000000000021
  0
ARC
  5
160
100
AcDbEntity
  8
0
  6
Continuous
 62
               7
100
AcDbCircle
 10
356.3497880914905
 20
72.951385694625657
 30
0.0
 40
1.0
100
AcDbArc
 50
179.99999999999969
 51
240.00000000000324
  0
ARC
  5
161
100
AcDbEntity
  8
0
  6
Continuous
 62
               7
100
AcDbCircle
 10
354.69978809149268
 20
73.03798823500361
 30
0.0
 40
0.25
100
AcDbArc
 50
240.00000000000003
 51
0.0
  0
ARC
  5
162
100
AcDbEntity
  8
0
  6
Continuous
 62
               7
100
AcDbCircle
 10
355.5997880914905
 20
71.479142508191813
 30
0.0
 40
0.25
100
AcDbArc
 50
60.000000000000021
 51
180.00000000000051
  0
ARC
  5
163
100
AcDbEntity
  8
0
  6
Continuous
 62
               7
100
AcDbCircle
 10
346.07937192918814
 20
76.273940431377611
 30
0.0
 40
1.0
100
AcDbArc
 50
0.0
 51
60.000000000000021
  0
ARC
  5
164
100
AcDbEntity
  8
0
  6
Continuous
 62
               7
100
AcDbCircle
 10
348.47937192918778
 20
77.659581077433046
 30
0.0
 40
1.0
100
AcDbArc
 50
179.99999999999969
 51
240.00000000000324
  0
ARC
  5
165
100
AcDbEntity
  8
0
  6
Continuous
 62
               7
100
AcDbCircle
 10
346.82937192918814
 20
77.746183617810999
 30
0.0
 40
0.25
100
AcDbArc
 50
240.00000000000003
 51
0.0
  0
ARC
  5
166
100
AcDbEntity
  8
0
  6
Continuous
 62
               7
100
AcDbCircle
 10
347.72937192918778
 20
76.187337890999203
 30
0.0
 40
0.25
100
AcDbArc
 50
60.000000000000021
 51
180.00000000000051
  0
ARC
  5
167
100
AcDbEntity
  8
0
  6
Continuous
 62
               7
100
AcDbCircle
 10
353.94978809149086
 20
57.146018294063339
 30
0.0
 40
1.0
100
AcDbArc
 50
0.0
 51
60.000000000000021
  0
ARC
  5
168
100
AcDbEntity
  8
0
  6
Continuous
 62
               7
100
AcDbCircle
 10
356.3497880914905
 20
58.531658940118774
 30
0.0
 40
1.0
100
AcDbArc
 50
179.99999999999969
 51
240.00000000000324
  0
ARC
  5
169
100
AcDbEntity
  8
0
  6
Continuous
 62
               7
100
AcDbCircle
 10
354.69978809149268
 20
58.618261480496727
 30
0.0
 40
0.25
100
AcDbArc
 50
240.00000000000003
 51
0.0
  0
ARC
  5
16A
100
AcDbEntity
  8
0
  6
Continuous
 62
               7
100
AcDbCircle
 10
355.5997880914905
 20
57.059415753684931
 30
0.0
 40
0.25
100
AcDbArc
 50
60.000000000000021
 51
180.00000000000051
  0
ARC
  5
16B
100
AcDbEntity
  8
0
  6
Continuous
 62
               7
100
AcDbCircle
 10
346.07937192918814
 20
61.854213676870728
 30
0.0
 40
1.0
100
AcDbArc
 50
0.0
 51
60.000000000000021
  0
ARC
  5
16C
100
AcDbEntity
  8
0
  6
Continuous
 62
               7
100
AcDbCircle
 10
348.47937192918778
 20
63.239854322926163
 30
0.0
 40
1.0
100
AcDbArc
 50
179.99999999999969
 51
240.00000000000324
  0
ARC
  5
16D
100
AcDbEntity
  8
0
  6
Continuous
 62
               7
100
AcDbCircle
 10
346.82937192918814
 20
63.326456863304116
 30
0.0
 40
0.25
100
AcDbArc
 50
240.00000000000003
 51
0.0
  0
ARC
  5
16E
100
AcDbEntity
  8
0
  6
Continuous
 62
               7
100
AcDbCircle
 10
347.72937192918778
 20
61.76761113649232
 30
0.0
 40
0.25
100
AcDbArc
 50
60.000000000000021
 51
180.00000000000051
  0
ARC
  5
16F
100
AcDbEntity
  8
0
  6
Continuous
 62
               7
100
AcDbCircle
 10
354.39621489665967
 20
45.564614102732463
 30
0.0
 40
0.25
100
AcDbArc
 50
240.00000000000003
 51
0.0
  0
ARC
  5
170
100
AcDbEntity
  8
0
  6
Continuous
 62
               7
100
AcDbCircle
 10
345.77579873435513
 20
48.800566299106464
 30
0.0
 40
1.0
100
AcDbArc
 50
0.0
 51
60.000000000000021
  0
ARC
  5
171
100
AcDbEntity
  8
0
  6
Continuous
 62
               7
100
AcDbCircle
 10
348.17579873435477
 20
50.186206945161899
 30
0.0
 40
1.0
100
AcDbArc
 50
179.99999999999969
 51
240.00000000000324
  0
ARC
  5
172
100
AcDbEntity
  8
0
  6
Continuous
 62
               7
100
AcDbCircle
 10
346.52579873435695
 20
50.272809485539852
 30
0.0
 40
0.25
100
AcDbArc
 50
240.00000000000003
 51
0.0
  0
ARC
  5
173
100
AcDbEntity
  8
0
  6
Continuous
 62
               7
100
AcDbCircle
 10
347.42579873435477
 20
48.713963758728056
 30
0.0
 40
0.25
100
AcDbArc
 50
60.000000000000021
 51
180.00000000000051
  0
ARC
  5
174
100
AcDbEntity
  8
0
  6
Continuous
 62
               7
100
AcDbCircle
 10
324.97923213296906
 20
88.337060396393696
 30
0.0
 40
1.0
100
AcDbArc
 50
119.99999999999973
 51
180.00000000000327
  0
ARC
  5
175
100
AcDbEntity
  8
0
  6
Continuous
 62
               7
100
AcDbCircle
 10
324.22923213296906
 20
89.80930358282663
 30
0.0
 40
0.25
100
AcDbArc
 50
180.0
 51
299.99999999998926
  0
ARC
  5
176
100
AcDbEntity
  8
0
  6
Continuous
 62
               7
100
AcDbCircle
 10
323.32923213296942
 20
88.250457856015288
 30
0.0
 40
0.25
100
AcDbArc
 50
0.0
 51
120.00000000000055
  0
ARC
  5
177
100
AcDbEntity
  8
0
  6
Continuous
 62
               7
100
AcDbCircle
 10
314.70011335689503
 20
85.740780800776662
 30
0.0
 40
1.0
100
AcDbArc
 50
300.00000000000051
 51
0.0
  0
ARC
  5
178
100
AcDbEntity
  8
0
  6
Continuous
 62
               7
100
AcDbCircle
 10
317.10011335689467
 20
84.355140154721681
 30
0.0
 40
1.0
100
AcDbArc
 50
119.99999999999973
 51
180.00000000000327
  0
ARC
  5
179
100
AcDbEntity
  8
0
  6
Continuous
 62
               7
100
AcDbCircle
 10
316.35011335689467
 20
85.827383341154615
 30
0.0
 40
0.25
100
AcDbArc
 50
180.0
 51
299.99999999998926
  0
ARC
  5
17A
100
AcDbEntity
  8
0
  6
Continuous
 62
               7
100
AcDbCircle
 10
315.45011335689503
 20
84.268537614343273
 30
0.0
 40
0.25
100
AcDbArc
 50
0.0
 51
120.00000000000055
  0
ELLIPSE
  5
17B
100
AcDbEntity
  8
0
  6
Continuous
 62
               7
100
AcDbEllipse
 10
331.18129708659887
 20
112.27937440982274
 30
0.0
 11
0.6249999999999933
 21
-1.0825317547305522
 31
0.0
210
0.0
220
0.0
230
1.0
 40
0.6
 41
0.0
 42
6.2831853071795862
  0
ELLIPSE
  5
17C
100
AcDbEntity
  8
0
  6
Continuous
 62
               7
100
AcDbEllipse
 10
331.18129708659706
 20
112.27937440982092
 30
0.0
 11
-0.3124999999999975
 21
0.5412658773652757
 31
0.0
210
0.0
220
0.0
230
1.0
 40
0.6
 41
0.0
 42
6.2831853071795862
  0
ELLIPSE
  5
17D
100
AcDbEntity
  8
0
  6
Continuous
 62
               7
100
AcDbEllipse
 10
323.25753845205816
 20
116.9841582160881
 30
0.0
 11
-1.5000000000000047
 21
-2.598076211353316
 31
0.0
210
0.0
220
0.0
230
1.0
 40
0.5999999999999999
 41
0.0
 42
6.2831853071795862
  0
ELLIPSE
  5
17E
100
AcDbEntity
  8
0
  6
Continuous
 62
               7
100
AcDbEllipse
 10
315.37841967598376
 20
113.00223797441609
 30
0.0
 11
-1.5000000000000047
 21
-2.598076211353316
 31
0.0
210
0.0
220
0.0
230
1.0
 40
0.5999999999999999
 41
0.0
 42
6.2831853071795862
  0
ELLIPSE
  5
17F
100
AcDbEntity
  8
0
  6
Continuous
 62
               7
100
AcDbEllipse
 10
315.8737366653653
 20
99.116282375560019
 30
0.0
 11
-1.5000000000000047
 21
-2.598076211353316
 31
0.0
210
0.0
220
0.0
230
1.0
 40
0.5999999999999999
 41
0.0
 42
6.2831853071795862
  0
ELLIPSE
  5
180
100
AcDbEntity
  8
0
  6
Continuous
 62
               7
100
AcDbEllipse
 10
347.27937192918705
 20
76.966760754405328
 30
0.0
 11
1.4999999999999944
 21
-2.5980762113533218
 31
0.0
210
0.0
220
0.0
230
1.0
 40
0.5999999999999999
 41
0.0
 42
6.2831853071795862
  0
ELLIPSE
  5
181
100
AcDbEntity
  8
0
  6
Continuous
 62
               7
100
AcDbEllipse
 10
355.14978809149159
 20
57.838838617091056
 30
0.0
 11
1.4999999999999944
 21
-2.5980762113533218
 31
0.0
210
0.0
220
0.0
230
1.0
 40
0.5999999999999999
 41
0.0
 42
6.2831853071795862
  0
ELLIPSE
  5
182
100
AcDbEntity
  8
0
  6
Continuous
 62
               7
100
AcDbEllipse
 10
347.27937192918705
 20
62.547033999898446
 30
0.0
 11
1.4999999999999944
 21
-2.5980762113533218
 31
0.0
210
0.0
220
0.0
230
1.0
 40
0.5999999999999999
 41
0.0
 42
6.2831853071795862
  0
ELLIPSE
  5
183
100
AcDbEntity
  8
0
  6
Continuous
 62
               7
100
AcDbEllipse
 10
346.97579873435586
 20
49.493386622134182
 30
0.0
 11
1.4999999999999944
 21
-2.5980762113533218
 31
0.0
210
0.0
220
0.0
230
1.0
 40
0.5999999999999999
 41
0.0
 42
6.2831853071795862
  0
ELLIPSE
  5
184
100
AcDbEntity
  8
0
  6
Continuous
 62
               7
100
AcDbEllipse
 10
315.90011335689576
 20
85.047960477748944
 30
0.0
 11
-1.5000000000000047
 21
-2.598076211353316
 31
0.0
210
0.0
220
0.0
230
1.0
 40
0.5999999999999999
 41
0.0
 42
6.2831853071795862
  0
ELLIPSE
  5
185
100
AcDbEntity
  8
0
  6
Continuous
 62
               7
100
AcDbEllipse
 10
355.14978809149159
 20
72.258565371597939
 30
0.0
 11
1.4999999999999944
 21
-2.5980762113533218
 31
0.0
210
0.0
220
0.0
230
1.0
 40
0.5999999999999999
 41
0.0
 42
6.2831853071795862
  0
ELLIPSE
  5
186
100
AcDbEntity
  8
0
  6
Continuous
 62
               7
100
AcDbEllipse
 10
338.60832581334341
 20
113.68231103940857
 30
0.0
 11
1.0825317547305464
 21
-0.6250000000000034
 31
0.0
210
0.0
220
0.0
230
1.0
 40
0.6
 41
0.0
 42
6.2831853071795862
  0
ELLIPSE
  5
187
100
AcDbEntity
  8
0
  6
Continuous
 62
               7
100
AcDbEllipse
 10
339.25402484185486
 20
149.38880571372343
 30
0.0
 11
2.0
 21
0.0
 31
0.0
210
0.0
220
0.0
230
1.0
 40
0.6
 41
3.14159265358977
 42
0.0
  0
ELLIPSE
  5
188
100
AcDbEntity
  8
0
  6
Continuous
 62
               7
100
AcDbEllipse
 10
339.25402484185486
 20
54.866657751920826
 30
0.0
 11
-6.25
 21
0.0000000000000008
 31
0.0
210
0.0
220
0.0
230
1.0
 40
0.5999999999999887
 41
0.000000000000025
 42
0.970624021250458
  0
ELLIPSE
  5
189
100
AcDbEntity
  8
0
  6
Continuous
 62
               7
100
AcDbEllipse
 10
339.25402484185486
 20
90.866657751921281
 30
0.0
 11
-6.25
 21
0.0000000000000008
 31
0.0
210
0.0
220
0.0
230
1.0
 40
0.6
 41
0.382644739423158
 42
0.8924543340447551
  0
ELLIPSE
  5
18A
100
AcDbEntity
  8
0
  6
Continuous
 62
               7
100
AcDbEllipse
 10
331.61430978849364
 20
112.5293744098241
 30
0.0
 11
0.6250000000000007
 21
-1.0825317547305802
 31
0.0
210
0.0
220
0.0
230
1.0
 40
0.6000000000001521
 41
0.000000000000001
 42
3.1415940463965479
  0
ELLIPSE
  5
18B
100
AcDbEntity
  8
0
  6
Continuous
 62
               7
100
AcDbEllipse
 10
332.48033519225589
 20
113.02937440981091
 30
0.0
 11
0.6249999999999997
 21
-1.0825317547306097
 31
0.0
210
0.0
220
0.0
230
1.0
 40
0.5999999999993041
 41
0.000000000000001
 42
3.14159427853106
  0
ELLIPSE
  5
18C
100
AcDbEntity
  8
0
  6
Continuous
 62
               7
100
AcDbEllipse
 10
332.91334789415248
 20
113.27937440981455
 30
0.0
 11
0.6249999999999997
 21
-1.0825317547306097
 31
0.0
210
0.0
220
0.0
230
1.0
 40
0.6000000000000914
 41
0.015968653527221
 42
3.1256168677545979
  0
ELLIPSE
  5
18D
100
AcDbEntity
  8
0
  6
Continuous
 62
               7
100
AcDbEllipse
 10
332.04732249037022
 20
112.77937440981546
 30
0.0
 11
0.6249999999999997
 21
-1.0825317547306097
 31
0.0
210
0.0
220
0.0
230
1.0
 40
0.6000000000000914
 41
0.000000000013591
 42
3.1415888604815509
  0
ELLIPSE
  5
18E
100
AcDbEntity
  8
0
  6
Continuous
 62
               7
100
AcDbEllipse
 10
331.39780343754262
 20
112.40437440982092
 30
0.0
 11
-0.5000000000000002
 21
0.866025403784412
 31
0.0
210
0.0
220
0.0
230
1.0
 40
0.6000000000008098
 41
3.627110775898609
 42
5.7976671848696917
  0
ELLIPSE
  5
18F
100
AcDbEntity
  8
0
  6
Continuous
 62
               7
100
AcDbEllipse
 10
331.83081613942829
 20
112.65437440981728
 30
0.0
 11
-0.4999999999999999
 21
0.8660254037843554
 31
0.0
210
0.0
220
0.0
230
1.0
 40
0.6000000000008492
 41
3.627110775898617
 42
5.7976671848696943
  0
ELLIPSE
  5
190
100
AcDbEntity
  8
0
  6
Continuous
 62
               7
100
AcDbEllipse
 10
332.26382884132488
 20
112.90437440982001
 30
0.0
 11
-0.5000000000000001
 21
0.8660254037843843
 31
0.0
210
0.0
220
0.0
230
1.0
 40
0.5999999999998452
 41
3.627110775898617
 42
5.7976671848696943
  0
ELLIPSE
  5
191
100
AcDbEntity
  8
0
  6
Continuous
 62
               7
100
AcDbEllipse
 10
332.69684154321237
 20
113.15437440981728
 30
0.0
 11
-0.4999999999999999
 21
0.8660254037844977
 31
0.0
210
0.0
220
0.0
230
1.0
 40
0.5999999999997113
 41
3.6271107758986161
 42
5.7976671848696943
  0
ELLIPSE
  5
192
100
AcDbEntity
  8
0
  6
Continuous
 62
               7
100
AcDbEllipse
 10
339.22293894665688
 20
128.43394084119078
 30
0.0
 11
2.75
 21
0.0
 31
0.0
210
0.0
220
0.0
230
1.0
 40
0.6
 41
1.97618736281414
 42
1.3719290865381186
  0
ELLIPSE
  5
193
100
AcDbEntity
  8
0
  6
Continuous
 62
               7
100
AcDbEllipse
 10
339.25402484185486
 20
90.866657751921281
 30
0.0
 11
-6.25
 21
0.0000000000000008
 31
0.0
210
0.0
220
0.0
230
1.0
 40
0.6
 41
2.138421344164005
 42
3.0309873731235042
  0
ELLIPSE
  5
194
100
AcDbEntity
  8
0
  6
Continuous
 62
               7
100
AcDbEllipse
 10
339.25402484185486
 20
92.066657751921554
 30
0.0
 11
-6.25
 21
0.0000000000000008
 31
0.0
210
0.0
220
0.0
230
1.0
 40
0.6000000000000184
 41
0.60293019905321
 42
3.198657426070465
  0
ELLIPSE
  5
195
100
AcDbEntity
  8
0
  6
Continuous
 62
               7
100
AcDbEllipse
 10
323.25753845205816
 20
116.9841582160881
 30
0.0
 11
-1.4999999999999984
 21
-2.598076211353316
 31
0.0
210
0.0
220
0.0
230
1.0
 40
0.6000000000000818
 41
4.9072704752423544
 42
2.0215530140575879
  0
ELLIPSE
  5
196
100
AcDbEntity
  8
0
  6
Continuous
 62
               7
100
AcDbEllipse
 10
315.37841967598376
 20
113.00223797441609
 30
0.0
 11
-1.4999999999999984
 21
-2.598076211353316
 31
0.0
210
0.0
220
0.0
230
1.0
 40
0.6000000000000818
 41
4.9072704752423544
 42
2.0215530140575879
  0
ELLIPSE
  5
197
100
AcDbEntity
  8
0
  6
Continuous
 62
               7
100
AcDbEllipse
 10
315.8737366653653
 20
99.116282375560019
 30
0.0
 11
-1.4999999999999984
 21
-2.598076211353316
 31
0.0
210
0.0
220
0.0
230
1.0
 40
0.5999999999997538
 41
4.9072704752423544
 42
2.0215530140575879
  0
ELLIPSE
  5
198
100
AcDbEntity
  8
0
  6
Continuous
 62
               7
100
AcDbEllipse
 10
323.75285544143969
 20
103.09820261723203
 30
0.0
 11
-1.4999999999999984
 21
-2.598076211353316
 31
0.0
210
0.0
220
0.0
230
1.0
 40
0.5999999999997538
 41
1.1293584980998479
 42
3.8805830407145092
  0
ELLIPSE
  5
199
100
AcDbEntity
  8
0
  6
Continuous
 62
               7
100
AcDbEllipse
 10
323.75285544143969
 20
103.09820261723203
 30
0.0
 11
-1.4999999999999984
 21
-2.598076211353316
 31
0.0
210
0.0
220
0.0
230
1.0
 40
0.5999999999997538
 41
1.1218169349259219
 42
2.0215530140575888
  0
ELLIPSE
  5
19A
100
AcDbEntity
  8
0
  6
Continuous
 62
               7
100
AcDbEllipse
 10
354.8462148966604
 20
44.785191239326792
 30
0.0
 11
1.5000000000000004
 21
-2.5980762113533213
 31
0.0
210
0.0
220
0.0
230
1.0
 40
0.6000000000000807
 41
1.3798687470963791
 42
3.852782404702352
  0
ELLIPSE
  5
19B
100
AcDbEntity
  8
0
  6
Continuous
 62
               7
100
AcDbEllipse
 10
315.90011335689576
 20
85.047960477748944
 30
0.0
 11
-1.4999999999999984
 21
-2.598076211353316
 31
0.0
210
0.0
220
0.0
230
1.0
 40
0.5999999999997538
 41
4.9072704752423544
 42
2.0215530140575879
  0
ELLIPSE
  5
19C
100
AcDbEntity
  8
0
  6
Continuous
 62
               7
100
AcDbEllipse
 10
323.77923213297015
 20
89.029880719420959
 30
0.0
 11
-1.4999999999999984
 21
-2.598076211353316
 31
0.0
210
0.0
220
0.0
230
1.0
 40
0.5999999999997538
 41
0.5890457338060841
 42
4.0836819033879932
  0
ELLIPSE
  5
19D
100
AcDbEntity
  8
0
  6
Continuous
 62
               7
100
AcDbEllipse
 10
323.77923213297015
 20
89.029880719420959
 30
0.0
 11
-1.4999999999999984
 21
-2.598076211353316
 31
0.0
210
0.0
220
0.0
230
1.0
 40
0.5999999999997538
 41
0.03522739173277
 42
2.0215530140575888
  0
ELLIPSE
  5
19E
100
AcDbEntity
  8
0
  6
Continuous
 62
               7
100
AcDbEllipse
 10
339.25402484185486
 20
128.0666577519211
 30
0.0
 11
-6.25
 21
0.0000000000000008
 31
0.0
210
0.0
220
0.0
230
1.0
 40
0.6
 41
0.602930199053054
 42
5.0786035210816509
  0
ELLIPSE
  5
19F
100
AcDbEntity
  8
0
  6
Continuous
 62
               7
100
AcDbEllipse
 10
338.73332169737057
 20
113.89881976669918
 30
0.0
 11
-0.8660254037840791
 21
0.4999999999999267
 31
0.0
210
0.0
220
0.0
230
1.0
 40
0.6000000000001549
 41
5.8534041726164254
 42
3.5832468907824833
  0
ELLIPSE
  5
1A0
100
AcDbEntity
  8
0
  6
Continuous
 62
               7
100
AcDbEllipse
 10
338.85832581334523
 20
114.11532374130016
 30
0.0
 11
1.0825317547305531
 21
-0.6250000000002317
 31
0.0
210
0.0
220
0.0
230
1.0
 40
0.6000000000001481
 41
3.926357188041822
 42
5.4983979597210464
  0
ELLIPSE
  5
1A1
100
AcDbEntity
  8
0
  6
Continuous
 62
               7
100
AcDbEllipse
 10
339.10832581334523
 20
114.54833644319265
 30
0.0
 11
1.0825317547314623
 21
-0.6250000000000028
 31
0.0
210
0.0
220
0.0
230
1.0
 40
0.6000000000000394
 41
3.9263685945786042
 42
5.5534576509522573
  0
ELLIPSE
  5
1A2
100
AcDbEntity
  8
0
  6
Continuous
 62
               7
100
AcDbEllipse
 10
338.98332581333796
 20
114.33183009223663
 30
0.0
 11
-0.8660254037840789
 21
0.5000000000000492
 31
0.0
210
0.0
220
0.0
230
1.0
 40
0.5999999999998252
 41
0.41151684605246
 42
2.71958597754274
  0
ELLIPSE
  5
1A3
100
AcDbEntity
  8
0
  6
Continuous
 62
               7
100
AcDbEllipse
 10
339.25402484185486
 20
150.38880571372343
 30
0.0
 11
2.0
 21
0.0
 31
0.0
210
0.0
220
0.0
230
1.0
 40
0.6
 41
4.1839374068637891
 42
5.2408405539055902
  0
ELLIPSE
  5
1A4
100
AcDbEntity
  8
0
  6
Continuous
 62
               7
100
AcDbEllipse
 10
339.25402484185486
 20
149.88880571372343
 30
0.0
 11
2.0
 21
0.0
 31
0.0
210
0.0
220
0.0
230
1.0
 40
0.6
 41
3.3492927628235929
 42
6.0526449109969489
  0
TEXT
  5
1A5
100
AcDbEntity
  8
0
 62
               7
100
AcDbText
 10
314.15989641980502
 20
142.50699257038391
 30
0.0
 40
3.0000000000015921
  1
扉
 41
0.9999999999994693
 72
               5
 11
317.15989641980502
 21
142.50699257038391
 31
0.0
100
AcDbText
  0
TEXT
  5
1A6
100
AcDbEntity
  8
0
 62
               7
100
AcDbText
 10
339.84610358256884
 20
140.80656496260522
 30
0.0
 40
3.0000000000002269
  1
５ｍｍ六角レンチ
 41
0.9999999999999244
 72
               5
 11
363.84610358256884
 21
140.80656496260522
 31
0.0
100
AcDbText
  0
TEXT
  5
1A7
100
AcDbEntity
  8
0
 62
               7
100
AcDbText
 10
339.23904542276921
 20
102.39030848911048
 30
0.0
 40
2.9999999999986362
  1
固定ネジ
 41
1.0000000000004545
 72
               5
 11
351.23904542276921
 21
102.39030848911048
 31
0.0
100
AcDbText
  0
TEXT
  5
1A8
100
AcDbEntity
  8
0
 62
               7
100
AcDbText
 10
358.46719442184929
 20
116.87454324317528
 30
0.0
 40
3.0000000000002269
  1
枠
 41
0.9999999999999244
 72
               5
 11
361.46719442184929
 21
116.87454324317528
 31
0.0
100
AcDbText
  0
TEXT
  5
1A9
100
AcDbEntity
  8
0
 62
               7
100
AcDbText
 10
305.47697063415887
 20
72.633810953949393
 30
0.0
 40
2.9999999999995448
  1
２.５㎜六角レンチ
 41
1.0000000000001517
 72
               5
 11
330.97697063415887
 21
72.633810953949393
 31
0.0
100
AcDbText
  0
TEXT
  5
1AA
100
AcDbEntity
  8
0
 62
               7
100
AcDbText
 10
321.60824119198276
 20
153.38459129373692
 30
0.0
 40
3.0000000000011369
  1
キャップ
 41
0.9999999999996211
 72
               5
 11
333.60824119198276
 21
153.38459129373692
 31
0.0
100
AcDbText
  0
HATCH
  5
1AB
100
AcDbEntity
  8
Layer00003
 62
             110
100
AcDbHatch
 10
0.0
 20
0.0
 30
0.0
210
0.0
220
0.0
230
1.0
  2
SOLID
 70
               1
 71
               1
 91
        7
 92
        1
 93
      621
 72
               1
 10
381.62531109071222
 20
283.44095913023386
 11
381.50739877414105
 21
283.41090152123627
 72
               1
 10
381.50739877414105
 20
283.41090152123627
 11
381.50739877414105
 21
283.41090152123627
 72
               1
 10
381.50739877414105
 20
283.41090152123627
 11
381.50739877414105
 21
283.41090152123627
 72
               1
 10
381.50739877414105
 20
283.41090152123627
 11
381.50739877414105
 21
283.41090152123627
 72
               1
 10
381.50739877414105
 20
283.41090152123627
 11
381.39060256171376
 21
283.37676328723512
 72
               1
 10
381.39060256171376
 20
283.37676328723512
 11
381.39060256171376
 21
283.37676328723512
 72
               1
 10
381.39060256171376
 20
283.37676328723512
 11
381.39060256171376
 21
283.37676328723512
 72
               1
 10
381.39060256171376
 20
283.37676328723512
 11
381.39060256171376
 21
283.37676328723512
 72
               1
 10
381.39060256171376
 20
283.37676328723512
 11
381.27506362691508
 21
283.33858569166853
 72
               1
 10
381.27506362691508
 20
283.33858569166853
 11
381.27506362691508
 21
283.33858569166853
 72
               1
 10
381.27506362691508
 20
283.33858569166853
 11
381.27506362691508
 21
283.33858569166853
 72
               1
 10
381.27506362691508
 20
283.33858569166853
 11
381.27506362691508
 21
283.33858569166853
 72
               1
 10
381.27506362691508
 20
283.33858569166853
 11
381.16092162353323
 21
283.29641488041682
 72
               1
 10
381.16092162353323
 20
283.29641488041682
 11
381.16092162353323
 21
283.29641488041682
 72
               1
 10
381.16092162353323
 20
283.29641488041682
 11
381.16092162353323
 21
283.29641488041682
 72
               1
 10
381.16092162353323
 20
283.29641488041682
 11
381.16092162353323
 21
283.29641488041682
 72
               1
 10
381.16092162353323
 20
283.29641488041682
 11
381.04831451686493
 21
283.25030182602325
 72
               1
 10
381.04831451686493
 20
283.25030182602325
 11
381.04831451686493
 21
283.25030182602325
 72
               1
 10
381.04831451686493
 20
283.25030182602325
 11
381.04831451686493
 21
283.25030182602325
 72
               1
 10
381.04831451686493
 20
283.25030182602325
 11
381.04831451686493
 21
283.25030182602325
 72
               1
 10
381.04831451686493
 20
283.25030182602325
 11
380.93737841694872
 21
283.20030226609026
 72
               1
 10
380.93737841694872
 20
283.20030226609026
 11
380.93737841694872
 21
283.20030226609026
 72
               1
 10
380.93737841694872
 20
283.20030226609026
 11
380.93737841694872
 21
283.20030226609026
 72
               1
 10
380.93737841694872
 20
283.20030226609026
 11
380.93737841694872
 21
283.20030226609026
 72
               1
 10
380.93737841694872
 20
283.20030226609026
 11
380.82824741405727
 21
283.14647663589687
 72
               1
 10
380.82824741405727
 20
283.14647663589687
 11
380.82824741405727
 21
283.14647663589687
 72
               1
 10
380.82824741405727
 20
283.14647663589687
 11
380.82824741405727
 21
283.14647663589687
 72
               1
 10
380.82824741405727
 20
283.14647663589687
 11
380.82824741405727
 21
283.14647663589687
 72
               1
 10
380.82824741405727
 20
283.14647663589687
 11
380.72105341660733
 21
283.08888999536077
 72
               1
 10
380.72105341660733
 20
283.08888999536077
 11
380.72105341660733
 21
283.08888999536077
 72
               1
 10
380.72105341660733
 20
283.08888999536077
 11
380.72105341660733
 21
283.08888999536077
 72
               1
 10
380.72105341660733
 20
283.08888999536077
 11
380.72105341660733
 21
283.08888999536077
 72
               1
 10
380.72105341660733
 20
283.08888999536077
 11
380.61592599172525
 21
283.02761195038886
 72
               1
 10
380.61592599172525
 20
283.02761195038886
 11
380.61592599172525
 21
283.02761195038886
 72
               1
 10
380.61592599172525
 20
283.02761195038886
 11
380.61592599172525
 21
283.02761195038886
 72
               1
 10
380.61592599172525
 20
283.02761195038886
 11
380.61592599172525
 21
283.02761195038886
 72
               1
 10
380.61592599172525
 20
283.02761195038886
 11
380.51299220864291
 21
282.96271656874899
 72
               1
 10
380.51299220864291
 20
282.96271656874899
 11
380.51299220864291
 21
282.96271656874899
 72
               1
 10
380.51299220864291
 20
282.96271656874899
 11
380.51299220864291
 21
282.96271656874899
 72
               1
 10
380.51299220864291
 20
282.96271656874899
 11
380.51299220864291
 21
282.96271656874899
 72
               1
 10
380.51299220864291
 20
282.96271656874899
 11
380.41237648509502
 21
282.89428229055022
 72
               1
 10
380.41237648509502
 20
282.89428229055022
 11
380.41237648509502
 21
282.89428229055022
 72
               1
 10
380.41237648509502
 20
282.89428229055022
 11
380.41237648509502
 21
282.89428229055022
 72
               1
 10
380.41237648509502
 20
282.89428229055022
 11
380.41237648509502
 21
282.89428229055022
 72
               1
 10
380.41237648509502
 20
282.89428229055022
 11
380.31420043694504
 21
282.82239183341164
 72
               1
 10
380.31420043694504
 20
282.82239183341164
 11
380.31420043694504
 21
282.82239183341164
 72
               1
 10
380.31420043694504
 20
282.82239183341164
 11
380.31420043694504
 21
282.82239183341164
 72
               1
 10
380.31420043694504
 20
282.82239183341164
 11
380.31420043694504
 21
282.82239183341164
 72
               1
 10
380.31420043694504
 20
282.82239183341164
 11
380.21858273117994
 21
282.74713209249978
 72
               1
 10
380.21858273117994
 20
282.74713209249978
 11
380.21858273117994
 21
282.74713209249978
 72
               1
 10
380.21858273117994
 20
282.74713209249978
 11
380.21858273117994
 21
282.74713209249978
 72
               1
 10
380.21858273117994
 20
282.74713209249978
 11
380.21858273117994
 21
282.74713209249978
 72
               1
 10
380.21858273117994
 20
282.74713209249978
 11
380.12563894247376
 21
282.6685940354929
 72
               1
 10
380.12563894247376
 20
282.6685940354929
 11
380.12563894247376
 21
282.6685940354929
 72
               1
 10
380.12563894247376
 20
282.6685940354929
 11
380.12563894247376
 21
282.6685940354929
 72
               1
 10
380.12563894247376
 20
282.6685940354929
 11
380.12563894247376
 21
282.6685940354929
 72
               1
 10
380.12563894247376
 20
282.6685940354929
 11
380.03548141349836
 21
282.58687259260853
 72
               1
 10
380.03548141349836
 20
282.58687259260853
 11
380.03548141349836
 21
282.58687259260853
 72
               1
 10
380.03548141349836
 20
282.58687259260853
 11
380.03548141349836
 21
282.58687259260853
 72
               1
 10
380.03548141349836
 20
282.58687259260853
 11
380.03548141349836
 21
282.58687259260853
 72
               1
 10
380.03548141349836
 20
282.58687259260853
 11
379.94821911912311
 21
282.50206654189253
 72
               1
 10
379.94821911912311
 20
282.50206654189253
 11
379.94821911912311
 21
282.50206654189253
 72
               1
 10
379.94821911912311
 20
282.50206654189253
 11
379.94821911912311
 21
282.50206654189253
 72
               1
 10
379.94821911912311
 20
282.50206654189253
 11
379.94821911912311
 21
282.50206654189253
 72
               1
 10
379.94821911912311
 20
282.50206654189253
 11
379.86395753470367
 21
282.41427838979519
 72
               1
 10
379.86395753470367
 20
282.41427838979519
 11
379.86395753470367
 21
282.41427838979519
 72
               1
 10
379.86395753470367
 20
282.41427838979519
 11
379.86395753470367
 21
282.41427838979519
 72
               1
 10
379.86395753470367
 20
282.41427838979519
 11
379.86395753470367
 21
282.41427838979519
 72
               1
 10
379.86395753470367
 20
282.41427838979519
 11
379.78279850858723
 21
282.32361424727981
 72
               1
 10
379.78279850858723
 20
282.32361424727981
 11
379.78279850858723
 21
282.32361424727981
 72
               1
 10
379.78279850858723
 20
282.32361424727981
 11
379.78279850858723
 21
282.32361424727981
 72
               1
 10
379.78279850858723
 20
282.32361424727981
 11
379.78279850858723
 21
282.32361424727981
 72
               1
 10
379.78279850858723
 20
282.32361424727981
 11
379.70484013901057
 21
282.2301837015749
 72
               1
 10
379.70484013901057
 20
282.2301837015749
 11
379.70484013901057
 21
282.2301837015749
 72
               1
 10
379.70484013901057
 20
282.2301837015749
 11
379.70484013901057
 21
282.2301837015749
 72
               1
 10
379.70484013901057
 20
282.2301837015749
 11
379.70484013901057
 21
282.2301837015749
 72
               1
 10
379.70484013901057
 20
282.2301837015749
 11
379.63017665552013
 21
282.13409968370081
 72
               1
 10
379.63017665552013
 20
282.13409968370081
 11
379.63017665552013
 21
282.13409968370081
 72
               1
 10
379.63017665552013
 20
282.13409968370081
 11
379.63017665552013
 21
282.13409968370081
 72
               1
 10
379.63017665552013
 20
282.13409968370081
 11
379.63017665552013
 21
282.13409968370081
 72
               1
 10
379.63017665552013
 20
282.13409968370081
 11
379.55889830508511
 21
282.03547833197274
 72
               1
 10
379.55889830508511
 20
282.03547833197274
 11
379.55889830508511
 21
282.03547833197274
 72
               1
 10
379.55889830508511
 20
282.03547833197274
 11
379.55889830508511
 21
282.03547833197274
 72
               1
 10
379.55889830508511
 20
282.03547833197274
 11
379.55889830508511
 21
282.03547833197274
 72
               1
 10
379.55889830508511
 20
282.03547833197274
 11
379.49109124300719
 21
281.93443885161844
 72
               1
 10
379.49109124300719
 20
281.93443885161844
 11
379.49109124300719
 21
281.93443885161844
 72
               1
 10
379.49109124300719
 20
281.93443885161844
 11
379.49109124300719
 21
281.93443885161844
 72
               1
 10
379.49109124300719
 20
281.93443885161844
 11
379.49109124300719
 21
281.93443885161844
 72
               1
 10
379.49109124300719
 20
281.93443885161844
 11
379.42683742878341
 21
281.83110337070514
 72
               1
 10
379.42683742878341
 20
281.83110337070514
 11
379.42683742878341
 21
281.83110337070514
 72
               1
 10
379.42683742878341
 20
281.83110337070514
 11
379.42683742878341
 21
281.83110337070514
 72
               1
 10
379.42683742878341
 20
281.83110337070514
 11
379.42683742878341
 21
281.83110337070514
 72
               1
 10
379.42683742878341
 20
281.83110337070514
 11
379.36621452704583
 21
281.72559679250855
 72
               1
 10
379.36621452704583
 20
281.72559679250855
 11
379.36621452704583
 21
281.72559679250855
 72
               1
 10
379.36621452704583
 20
281.72559679250855
 11
379.36621452704583
 21
281.72559679250855
 72
               1
 10
379.36621452704583
 20
281.72559679250855
 11
379.36621452704583
 21
281.72559679250855
 72
               1
 10
379.36621452704583
 20
281.72559679250855
 11
379.30929581368162
 21
281.61804664454587
 72
               1
 10
379.30929581368162
 20
281.61804664454587
 11
379.30929581368162
 21
281.61804664454587
 72
               1
 10
379.30929581368162
 20
281.61804664454587
 11
379.30929581368162
 21
281.61804664454587
 72
               1
 10
379.30929581368162
 20
281.61804664454587
 11
379.30929581368162
 21
281.61804664454587
 72
               1
 10
379.30929581368162
 20
281.61804664454587
 11
379.2561500872647
 21
281.50858292443093
 72
               1
 10
379.2561500872647
 20
281.50858292443093
 11
379.2561500872647
 21
281.50858292443093
 72
               1
 10
379.2561500872647
 20
281.50858292443093
 11
379.2561500872647
 21
281.50858292443093
 72
               1
 10
379.2561500872647
 20
281.50858292443093
 11
379.2561500872647
 21
281.50858292443093
 72
               1
 10
379.2561500872647
 20
281.50858292443093
 11
379.20684158590063
 21
281.39733794274264
 72
               1
 10
379.20684158590063
 20
281.39733794274264
 11
379.20684158590063
 21
281.39733794274264
 72
               1
 10
379.20684158590063
 20
281.39733794274264
 11
379.20684158590063
 21
281.39733794274264
 72
               1
 10
379.20684158590063
 20
281.39733794274264
 11
379.20684158590063
 21
281.39733794274264
 72
               1
 10
379.20684158590063
 20
281.39733794274264
 11
379.16142990957394
 21
281.28444616309946
 72
               1
 10
379.16142990957394
 20
281.28444616309946
 11
379.16142990957394
 21
281.28444616309946
 72
               1
 10
379.16142990957394
 20
281.28444616309946
 11
379.16142990957394
 21
281.28444616309946
 72
               1
 10
379.16142990957394
 20
281.28444616309946
 11
379.16142990957394
 21
281.28444616309946
 72
               1
 10
379.16142990957394
 20
281.28444616309946
 11
379.11996994811977
 21
281.17004403963085
 72
               1
 10
379.11996994811977
 20
281.17004403963085
 11
379.11996994811977
 21
281.17004403963085
 72
               1
 10
379.11996994811977
 20
281.17004403963085
 11
379.11996994811977
 21
281.17004403963085
 72
               1
 10
379.11996994811977
 20
281.17004403963085
 11
379.11996994811977
 21
281.17004403963085
 72
               1
 10
379.11996994811977
 20
281.17004403963085
 11
379.08251181486719
 21
281.05426985204588
 72
               1
 10
379.08251181486719
 20
281.05426985204588
 11
379.08251181486719
 21
281.05426985204588
 72
               1
 10
379.08251181486719
 20
281.05426985204588
 11
379.08251181486719
 21
281.05426985204588
 72
               1
 10
379.08251181486719
 20
281.05426985204588
 11
379.08251181486719
 21
281.05426985204588
 72
               1
 10
379.08251181486719
 20
281.05426985204588
 11
379.04910078607043
 21
280.93726353848626
 72
               1
 10
379.04910078607043
 20
280.93726353848626
 11
379.04910078607043
 21
280.93726353848626
 72
               1
 10
379.04910078607043
 20
280.93726353848626
 11
379.04910078607043
 21
280.93726353848626
 72
               1
 10
379.04910078607043
 20
280.93726353848626
 11
379.04910078607043
 21
280.93726353848626
 72
               1
 10
379.04910078607043
 20
280.93726353848626
 11
379.0197772461828
 21
280.81916652639131
 72
               1
 10
379.0197772461828
 20
280.81916652639131
 11
379.0197772461828
 21
280.81916652639131
 72
               1
 10
379.0197772461828
 20
280.81916652639131
 11
379.0197772461828
 21
280.81916652639131
 72
               1
 10
379.0197772461828
 20
280.81916652639131
 11
379.0197772461828
 21
280.81916652639131
 72
               1
 10
379.0197772461828
 20
280.81916652639131
 11
378.99457663904411
 21
280.70012156153473
 72
               1
 10
378.99457663904411
 20
280.70012156153473
 11
378.99457663904411
 21
280.70012156153473
 72
               1
 10
378.99457663904411
 20
280.70012156153473
 11
378.99457663904411
 21
280.70012156153473
 72
               1
 10
378.99457663904411
 20
280.70012156153473
 11
378.99457663904411
 21
280.70012156153473
 72
               1
 10
378.99457663904411
 20
280.70012156153473
 11
378.97352942503983
 21
280.58027253550256
 72
               1
 10
378.97352942503983
 20
280.58027253550256
 11
378.97352942503983
 21
280.58027253550256
 72
               1
 10
378.97352942503983
 20
280.58027253550256
 11
378.97352942503983
 21
280.58027253550256
 72
               1
 10
378.97352942503983
 20
280.58027253550256
 11
378.97352942503983
 21
280.58027253550256
 72
               1
 10
378.97352942503983
 20
280.58027253550256
 11
378.95666104427926
 21
280.45976431176689
 72
               1
 10
378.95666104427926
 20
280.45976431176689
 11
378.95666104427926
 21
280.45976431176689
 72
               1
 10
378.95666104427926
 20
280.45976431176689
 11
378.95666104427926
 21
280.45976431176689
 72
               1
 10
378.95666104427926
 20
280.45976431176689
 11
378.95666104427926
 21
280.45976431176689
 72
               1
 10
378.95666104427926
 20
280.45976431176689
 11
378.94399188584737
 21
280.33874255057174
 72
               1
 10
378.94399188584737
 20
280.33874255057174
 11
378.94399188584737
 21
280.33874255057174
 72
               1
 10
378.94399188584737
 20
280.33874255057174
 11
378.94399188584737
 21
280.33874255057174
 72
               1
 10
378.94399188584737
 20
280.33874255057174
 11
378.94399188584737
 21
280.33874255057174
 72
               1
 10
378.94399188584737
 20
280.33874255057174
 11
378.93553726316293
 21
280.21735353289489
 72
               1
 10
378.93553726316293
 20
280.21735353289489
 11
378.93553726316293
 21
280.21735353289489
 72
               1
 10
378.93553726316293
 20
280.21735353289489
 11
378.93553726316293
 21
280.21735353289489
 72
               1
 10
378.93553726316293
 20
280.21735353289489
 11
378.93553726316293
 21
280.21735353289489
 72
               1
 10
378.93553726316293
 20
280.21735353289489
 11
378.93130739546484
 21
280.09574398361121
 72
               1
 10
378.93130739546484
 20
280.09574398361121
 11
378.93130739546484
 21
280.09574398361121
 72
               1
 10
378.93130739546484
 20
280.09574398361121
 11
378.93130739546484
 21
280.09574398361121
 72
               1
 10
378.93130739546484
 20
280.09574398361121
 11
378.93130739546484
 21
280.09574398361121
 72
               1
 10
378.93130739546484
 20
280.09574398361121
 11
378.93130739546484
 21
279.9740608941612
 72
               1
 10
378.93130739546484
 20
279.9740608941612
 11
378.93130739546484
 21
279.9740608941612
 72
               1
 10
378.93130739546484
 20
279.9740608941612
 11
378.93130739546484
 21
279.9740608941612
 72
               1
 10
378.93130739546484
 20
279.9740608941612
 11
378.93130739546484
 21
279.9740608941612
 72
               1
 10
378.93130739546484
 20
279.9740608941612
 11
378.93553726316293
 21
279.85245134487752
 72
               1
 10
378.93553726316293
 20
279.85245134487752
 11
378.93553726316293
 21
279.85245134487752
 72
               1
 10
378.93553726316293
 20
279.85245134487752
 11
378.93553726316293
 21
279.85245134487752
 72
               1
 10
378.93553726316293
 20
279.85245134487752
 11
378.93553726316293
 21
279.85245134487752
 72
               1
 10
378.93553726316293
 20
279.85245134487752
 11
378.94399188584555
 21
279.73106232719886
 72
               1
 10
378.94399188584555
 20
279.73106232719886
 11
378.94399188584555
 21
279.73106232719886
 72
               1
 10
378.94399188584555
 20
279.73106232719886
 11
378.94399188584555
 21
279.73106232719886
 72
               1
 10
378.94399188584555
 20
279.73106232719886
 11
378.94399188584555
 21
279.73106232719886
 72
               1
 10
378.94399188584555
 20
279.73106232719886
 11
378.95666104427744
 21
279.61004056600552
 72
               1
 10
378.95666104427744
 20
279.61004056600552
 11
378.95666104427744
 21
279.61004056600552
 72
               1
 10
378.95666104427744
 20
279.61004056600552
 11
378.95666104427744
 21
279.61004056600552
 72
               1
 10
378.95666104427744
 20
279.61004056600552
 11
378.95666104427744
 21
279.61004056600552
 72
               1
 10
378.95666104427744
 20
279.61004056600552
 11
378.97352942503983
 21
279.48953234226803
 72
               1
 10
378.97352942503983
 20
279.48953234226803
 11
378.97352942503983
 21
279.48953234226803
 72
               1
 10
378.97352942503983
 20
279.48953234226803
 11
378.97352942503983
 21
279.48953234226803
 72
               1
 10
378.97352942503983
 20
279.48953234226803
 11
378.97352942503983
 21
279.48953234226803
 72
               1
 10
378.97352942503983
 20
279.48953234226803
 11
378.99457663904411
 21
279.36968331623768
 72
               1
 10
378.99457663904411
 20
279.36968331623768
 11
378.99457663904411
 21
279.36968331623768
 72
               1
 10
378.99457663904411
 20
279.36968331623768
 11
378.99457663904411
 21
279.36968331623768
 72
               1
 10
378.99457663904411
 20
279.36968331623768
 11
378.99457663904411
 21
279.36968331623768
 72
               1
 10
378.99457663904411
 20
279.36968331623768
 11
379.0197772461828
 21
279.2506383513811
 72
               1
 10
379.0197772461828
 20
279.2506383513811
 11
379.0197772461828
 21
279.2506383513811
 72
               1
 10
379.0197772461828
 20
279.2506383513811
 11
379.0197772461828
 21
279.2506383513811
 72
               1
 10
379.0197772461828
 20
279.2506383513811
 11
379.0197772461828
 21
279.2506383513811
 72
               1
 10
379.0197772461828
 20
279.2506383513811
 11
379.04910078606861
 21
279.13254133928433
 72
               1
 10
379.04910078606861
 20
279.13254133928433
 11
379.04910078606861
 21
279.13254133928433
 72
               1
 10
379.04910078606861
 20
279.13254133928433
 11
379.04910078606861
 21
279.13254133928433
 72
               1
 10
379.04910078606861
 20
279.13254133928433
 11
379.04910078606861
 21
279.13254133928433
 72
               1
 10
379.04910078606861
 20
279.13254133928433
 11
379.08251181486719
 21
279.01553502572472
 72
               1
 10
379.08251181486719
 20
279.01553502572472
 11
379.08251181486719
 21
279.01553502572472
 72
               1
 10
379.08251181486719
 20
279.01553502572472
 11
379.08251181486719
 21
279.01553502572472
 72
               1
 10
379.08251181486719
 20
279.01553502572472
 11
379.08251181486719
 21
279.01553502572472
 72
               1
 10
379.08251181486719
 20
279.01553502572472
 11
379.11996994811977
 21
278.89976083813974
 72
               1
 10
379.11996994811977
 20
278.89976083813974
 11
379.11996994811977
 21
278.89976083813974
 72
               1
 10
379.11996994811977
 20
278.89976083813974
 11
379.11996994811977
 21
278.89976083813974
 72
               1
 10
379.11996994811977
 20
278.89976083813974
 11
379.11996994811977
 21
278.89976083813974
 72
               1
 10
379.11996994811977
 20
278.89976083813974
 11
379.16142990957394
 21
278.78535871467295
 72
               1
 10
379.16142990957394
 20
278.78535871467295
 11
379.16142990957394
 21
278.78535871467295
 72
               1
 10
379.16142990957394
 20
278.78535871467295
 11
379.16142990957394
 21
278.78535871467295
 72
               1
 10
379.16142990957394
 20
278.78535871467295
 11
379.16142990957394
 21
278.78535871467295
 72
               1
 10
379.16142990957394
 20
278.78535871467295
 11
379.20684158590063
 21
278.67246693502796
 72
               1
 10
379.20684158590063
 20
278.67246693502796
 11
379.20684158590063
 21
278.67246693502796
 72
               1
 10
379.20684158590063
 20
278.67246693502796
 11
379.20684158590063
 21
278.67246693502796
 72
               1
 10
379.20684158590063
 20
278.67246693502796
 11
379.20684158590063
 21
278.67246693502796
 72
               1
 10
379.20684158590063
 20
278.67246693502796
 11
379.2561500872647
 21
278.56122195334149
 72
               1
 10
379.2561500872647
 20
278.56122195334149
 11
379.2561500872647
 21
278.56122195334149
 72
               1
 10
379.2561500872647
 20
278.56122195334149
 11
379.2561500872647
 21
278.56122195334149
 72
               1
 10
379.2561500872647
 20
278.56122195334149
 11
379.2561500872647
 21
278.56122195334149
 72
               1
 10
379.2561500872647
 20
278.56122195334149
 11
379.30929581368162
 21
278.45175823322472
 72
               1
 10
379.30929581368162
 20
278.45175823322472
 11
379.30929581368162
 21
278.45175823322472
 72
               1
 10
379.30929581368162
 20
278.45175823322472
 11
379.30929581368162
 21
278.45175823322472
 72
               1
 10
379.30929581368162
 20
278.45175823322472
 11
379.30929581368162
 21
278.45175823322472
 72
               1
 10
379.30929581368162
 20
278.45175823322472
 11
379.36621452704583
 21
278.34420808526204
 72
               1
 10
379.36621452704583
 20
278.34420808526204
 11
379.36621452704583
 21
278.34420808526204
 72
               1
 10
379.36621452704583
 20
278.34420808526204
 11
379.36621452704583
 21
278.34420808526204
 72
               1
 10
379.36621452704583
 20
278.34420808526204
 11
379.36621452704583
 21
278.34420808526204
 72
               1
 10
379.36621452704583
 20
278.34420808526204
 11
379.42683742878341
 21
278.23870150706728
 72
               1
 10
379.42683742878341
 20
278.23870150706728
 11
379.42683742878341
 21
278.23870150706728
 72
               1
 10
379.42683742878341
 20
278.23870150706728
 11
379.42683742878341
 21
278.23870150706728
 72
               1
 10
379.42683742878341
 20
278.23870150706728
 11
379.42683742878341
 21
278.23870150706728
 72
               1
 10
379.42683742878341
 20
278.23870150706728
 11
379.49109124300719
 21
278.13536602615397
 72
               1
 10
379.49109124300719
 20
278.13536602615397
 11
379.49109124300719
 21
278.13536602615397
 72
               1
 10
379.49109124300719
 20
278.13536602615397
 11
379.49109124300719
 21
278.13536602615397
 72
               1
 10
379.49109124300719
 20
278.13536602615397
 11
379.49109124300719
 21
278.13536602615397
 72
               1
 10
379.49109124300719
 20
278.13536602615397
 11
379.55889830508511
 21
278.03432654579967
 72
               1
 10
379.55889830508511
 20
278.03432654579967
 11
379.55889830508511
 21
278.03432654579967
 72
               1
 10
379.55889830508511
 20
278.03432654579967
 11
379.55889830508511
 21
278.03432654579967
 72
               1
 10
379.55889830508511
 20
278.03432654579967
 11
379.55889830508511
 21
278.03432654579967
 72
               1
 10
379.55889830508511
 20
278.03432654579967
 11
379.63017665552013
 21
277.93570519406978
 72
               1
 10
379.63017665552013
 20
277.93570519406978
 11
379.63017665552013
 21
277.93570519406978
 72
               1
 10
379.63017665552013
 20
277.93570519406978
 11
379.63017665552013
 21
277.93570519406978
 72
               1
 10
379.63017665552013
 20
277.93570519406978
 11
379.63017665552013
 21
277.93570519406978
 72
               1
 10
379.63017665552013
 20
277.93570519406978
 11
379.70484013901057
 21
277.83962117619387
 72
               1
 10
379.70484013901057
 20
277.83962117619387
 11
379.70484013901057
 21
277.83962117619387
 72
               1
 10
379.70484013901057
 20
277.83962117619387
 11
379.70484013901057
 21
277.83962117619387
 72
               1
 10
379.70484013901057
 20
277.83962117619387
 11
379.70484013901057
 21
277.83962117619387
 72
               1
 10
379.70484013901057
 20
277.83962117619387
 11
379.78279850858723
 21
277.74619063049079
 72
               1
 10
379.78279850858723
 20
277.74619063049079
 11
379.78279850858723
 21
277.74619063049079
 72
               1
 10
379.78279850858723
 20
277.74619063049079
 11
379.78279850858723
 21
277.74619063049079
 72
               1
 10
379.78279850858723
 20
277.74619063049079
 11
379.78279850858723
 21
277.74619063049079
 72
               1
 10
379.78279850858723
 20
277.74619063049079
 11
379.86395753470367
 21
277.65552648797541
 72
               1
 10
379.86395753470367
 20
277.65552648797541
 11
379.86395753470367
 21
277.65552648797541
 72
               1
 10
379.86395753470367
 20
277.65552648797541
 11
379.86395753470367
 21
277.65552648797541
 72
               1
 10
379.86395753470367
 20
277.65552648797541
 11
379.86395753470367
 21
277.65552648797541
 72
               1
 10
379.86395753470367
 20
277.65552648797541
 11
379.94821911912311
 21
277.56773833587806
 72
               1
 10
379.94821911912311
 20
277.56773833587806
 11
379.94821911912311
 21
277.56773833587806
 72
               1
 10
379.94821911912311
 20
277.56773833587806
 11
379.94821911912311
 21
277.56773833587806
 72
               1
 10
379.94821911912311
 20
277.56773833587806
 11
379.94821911912311
 21
277.56773833587806
 72
               1
 10
379.94821911912311
 20
277.56773833587806
 11
380.03548141349654
 21
277.48293228516206
 72
               1
 10
380.03548141349654
 20
277.48293228516206
 11
380.03548141349654
 21
277.48293228516206
 72
               1
 10
380.03548141349654
 20
277.48293228516206
 11
380.03548141349654
 21
277.48293228516206
 72
               1
 10
380.03548141349654
 20
277.48293228516206
 11
380.03548141349654
 21
277.48293228516206
 72
               1
 10
380.03548141349654
 20
277.48293228516206
 11
380.12563894247376
 21
277.40121084227951
 72
               1
 10
380.12563894247376
 20
277.40121084227951
 11
380.12563894247376
 21
277.40121084227951
 72
               1
 10
380.12563894247376
 20
277.40121084227951
 11
380.12563894247376
 21
277.40121084227951
 72
               1
 10
380.12563894247376
 20
277.40121084227951
 11
380.12563894247376
 21
277.40121084227951
 72
               1
 10
380.12563894247376
 20
277.40121084227951
 11
380.21858273117994
 21
277.32267278527081
 72
               1
 10
380.21858273117994
 20
277.32267278527081
 11
380.21858273117994
 21
277.32267278527081
 72
               1
 10
380.21858273117994
 20
277.32267278527081
 11
380.21858273117994
 21
277.32267278527081
 72
               1
 10
380.21858273117994
 20
277.32267278527081
 11
380.21858273117994
 21
277.32267278527081
 72
               1
 10
380.21858273117994
 20
277.32267278527081
 11
380.31420043694504
 21
277.24741304436077
 72
               1
 10
380.31420043694504
 20
277.24741304436077
 11
380.31420043694504
 21
277.24741304436077
 72
               1
 10
380.31420043694504
 20
277.24741304436077
 11
380.31420043694504
 21
277.24741304436077
 72
               1
 10
380.31420043694504
 20
277.24741304436077
 11
380.31420043694504
 21
277.24741304436077
 72
               1
 10
380.31420043694504
 20
277.24741304436077
 11
380.41237648509502
 21
277.17552258722037
 72
               1
 10
380.41237648509502
 20
277.17552258722037
 11
380.41237648509502
 21
277.17552258722037
 72
               1
 10
380.41237648509502
 20
277.17552258722037
 11
380.41237648509502
 21
277.17552258722037
 72
               1
 10
380.41237648509502
 20
277.17552258722037
 11
380.41237648509502
 21
277.17552258722037
 72
               1
 10
380.41237648509502
 20
277.17552258722037
 11
380.51299220864109
 21
277.10708830901979
 72
               1
 10
380.51299220864109
 20
277.10708830901979
 11
380.51299220864109
 21
277.10708830901979
 72
               1
 10
380.51299220864109
 20
277.10708830901979
 11
380.51299220864109
 21
277.10708830901979
 72
               1
 10
380.51299220864109
 20
277.10708830901979
 11
380.51299220864109
 21
277.10708830901979
 72
               1
 10
380.51299220864109
 20
277.10708830901979
 11
380.61592599172525
 21
277.04219292738355
 72
               1
 10
380.61592599172525
 20
277.04219292738355
 11
380.61592599172525
 21
277.04219292738355
 72
               1
 10
380.61592599172525
 20
277.04219292738355
 11
380.61592599172525
 21
277.04219292738355
 72
               1
 10
380.61592599172525
 20
277.04219292738355
 11
380.61592599172525
 21
277.04219292738355
 72
               1
 10
380.61592599172525
 20
277.04219292738355
 11
380.72105341660551
 21
276.98091488240982
 72
               1
 10
380.72105341660551
 20
276.98091488240982
 11
380.72105341660551
 21
276.98091488240982
 72
               1
 10
380.72105341660551
 20
276.98091488240982
 11
380.72105341660551
 21
276.98091488240982
 72
               1
 10
380.72105341660551
 20
276.98091488240982
 11
380.72105341660551
 21
276.98091488240982
 72
               1
 10
380.72105341660551
 20
276.98091488240982
 11
380.82824741405727
 21
276.92332824187372
 72
               1
 10
380.82824741405727
 20
276.92332824187372
 11
380.82824741405727
 21
276.92332824187372
 72
               1
 10
380.82824741405727
 20
276.92332824187372
 11
380.82824741405727
 21
276.92332824187372
 72
               1
 10
380.82824741405727
 20
276.92332824187372
 11
380.82824741405727
 21
276.92332824187372
 72
               1
 10
380.82824741405727
 20
276.92332824187372
 11
380.93737841694872
 21
276.86950261168033
 72
               1
 10
380.93737841694872
 20
276.86950261168033
 11
380.93737841694872
 21
276.86950261168033
 72
               1
 10
380.93737841694872
 20
276.86950261168033
 11
380.93737841694872
 21
276.86950261168033
 72
               1
 10
380.93737841694872
 20
276.86950261168033
 11
380.93737841694872
 21
276.86950261168033
 72
               1
 10
380.93737841694872
 20
276.86950261168033
 11
381.04831451686312
 21
276.81950305174735
 72
               1
 10
381.04831451686312
 20
276.81950305174735
 11
381.04831451686312
 21
276.81950305174735
 72
               1
 10
381.04831451686312
 20
276.81950305174735
 11
381.04831451686312
 21
276.81950305174735
 72
               1
 10
381.04831451686312
 20
276.81950305174735
 11
381.04831451686312
 21
276.81950305174735
 72
               1
 10
381.04831451686312
 20
276.81950305174735
 11
381.16092162353323
 21
276.77338999735559
 72
               1
 10
381.16092162353323
 20
276.77338999735559
 11
381.16092162353323
 21
276.77338999735559
 72
               1
 10
381.16092162353323
 20
276.77338999735559
 11
381.16092162353323
 21
276.77338999735559
 72
               1
 10
381.16092162353323
 20
276.77338999735559
 11
381.16092162353323
 21
276.77338999735559
 72
               1
 10
381.16092162353323
 20
276.77338999735559
 11
381.27506362691508
 21
276.73121918610207
 72
               1
 10
381.27506362691508
 20
276.73121918610207
 11
381.27506362691508
 21
276.73121918610207
 72
               1
 10
381.27506362691508
 20
276.73121918610207
 11
381.27506362691508
 21
276.73121918610207
 72
               1
 10
381.27506362691508
 20
276.73121918610207
 11
381.27506362691508
 21
276.73121918610207
 72
               1
 10
381.27506362691508
 20
276.73121918610207
 11
381.39060256171376
 21
276.69304159053547
 72
               1
 10
381.39060256171376
 20
276.69304159053547
 11
381.39060256171376
 21
276.69304159053547
 72
               1
 10
381.39060256171376
 20
276.69304159053547
 11
381.39060256171376
 21
276.69304159053547
 72
               1
 10
381.39060256171376
 20
276.69304159053547
 11
381.39060256171376
 21
276.69304159053547
 72
               1
 10
381.39060256171376
 20
276.69304159053547
 11
381.50739877413923
 21
276.65890335653432
 72
               1
 10
381.50739877413923
 20
276.65890335653432
 11
381.50739877413923
 21
276.65890335653432
 72
               1
 10
381.50739877413923
 20
276.65890335653432
 11
381.50739877413923
 21
276.65890335653432
 72
               1
 10
381.50739877413923
 20
276.65890335653432
 11
381.50739877413923
 21
276.65890335653432
 72
               1
 10
381.50739877413923
 20
276.65890335653432
 11
381.6253110907104
 21
276.62884574753673
 72
               1
 10
381.6253110907104
 20
276.62884574753673
 11
381.6253110907104
 21
276.62884574753673
 72
               1
 10
381.6253110907104
 20
276.62884574753673
 11
381.6253110907104
 21
276.62884574753673
 72
               1
 10
381.6253110907104
 20
276.62884574753673
 11
381.6253110907104
 21
276.62884574753673
 72
               1
 10
381.6253110907104
 20
276.62884574753673
 11
402.50789582387131
 21
276.62884574753673
 72
               1
 10
402.50789582387131
 20
276.62884574753673
 11
402.50789582387131
 21
276.62884574753673
 72
               1
 10
402.50789582387131
 20
276.62884574753673
 11
402.50789582387131
 21
276.62884574753673
 72
               1
 10
402.50789582387131
 20
276.62884574753673
 11
402.50789582387131
 21
276.62884574753673
 72
               1
 10
402.50789582387131
 20
276.62884574753673
 11
402.62580814044247
 21
276.65890335653251
 72
               1
 10
402.62580814044247
 20
276.65890335653251
 11
402.62580814044247
 21
276.65890335653251
 72
               1
 10
402.62580814044247
 20
276.65890335653251
 11
402.62580814044247
 21
276.65890335653251
 72
               1
 10
402.62580814044247
 20
276.65890335653251
 11
402.62580814044247
 21
276.65890335653251
 72
               1
 10
402.62580814044247
 20
276.65890335653251
 11
402.74260435286794
 21
276.69304159053547
 72
               1
 10
402.74260435286794
 20
276.69304159053547
 11
402.74260435286794
 21
276.69304159053547
 72
               1
 10
402.74260435286794
 20
276.69304159053547
 11
402.74260435286794
 21
276.69304159053547
 72
               1
 10
402.74260435286794
 20
276.69304159053547
 11
402.74260435286794
 21
276.69304159053547
 72
               1
 10
402.74260435286794
 20
276.69304159053547
 11
402.85814328766662
 21
276.73121918610207
 72
               1
 10
402.85814328766662
 20
276.73121918610207
 11
402.85814328766662
 21
276.73121918610207
 72
               1
 10
402.85814328766662
 20
276.73121918610207
 11
402.85814328766662
 21
276.73121918610207
 72
               1
 10
402.85814328766662
 20
276.73121918610207
 11
402.85814328766662
 21
276.73121918610207
 72
               1
 10
402.85814328766662
 20
276.73121918610207
 11
402.97228529104848
 21
276.77338999735559
 72
               1
 10
402.97228529104848
 20
276.77338999735559
 11
402.97228529104848
 21
276.77338999735559
 72
               1
 10
402.97228529104848
 20
276.77338999735559
 11
402.97228529104848
 21
276.77338999735559
 72
               1
 10
402.97228529104848
 20
276.77338999735559
 11
402.97228529104848
 21
276.77338999735559
 72
               1
 10
402.97228529104848
 20
276.77338999735559
 11
403.08489239771859
 21
276.81950305174735
 72
               1
 10
403.08489239771859
 20
276.81950305174735
 11
403.08489239771859
 21
276.81950305174735
 72
               1
 10
403.08489239771859
 20
276.81950305174735
 11
403.08489239771859
 21
276.81950305174735
 72
               1
 10
403.08489239771859
 20
276.81950305174735
 11
403.08489239771859
 21
276.81950305174735
 72
               1
 10
403.08489239771859
 20
276.81950305174735
 11
403.19582849763299
 21
276.86950261168033
 72
               1
 10
403.19582849763299
 20
276.86950261168033
 11
403.19582849763299
 21
276.86950261168033
 72
               1
 10
403.19582849763299
 20
276.86950261168033
 11
403.19582849763299
 21
276.86950261168033
 72
               1
 10
403.19582849763299
 20
276.86950261168033
 11
403.19582849763299
 21
276.86950261168033
 72
               1
 10
403.19582849763299
 20
276.86950261168033
 11
403.30495950052443
 21
276.9233282418719
 72
               1
 10
403.30495950052443
 20
276.9233282418719
 11
403.30495950052443
 21
276.9233282418719
 72
               1
 10
403.30495950052443
 20
276.9233282418719
 11
403.30495950052443
 21
276.9233282418719
 72
               1
 10
403.30495950052443
 20
276.9233282418719
 11
403.30495950052443
 21
276.9233282418719
 72
               1
 10
403.30495950052443
 20
276.9233282418719
 11
403.41215349797619
 21
276.98091488240982
 72
               1
 10
403.41215349797619
 20
276.98091488240982
 11
403.41215349797619
 21
276.98091488240982
 72
               1
 10
403.41215349797619
 20
276.98091488240982
 11
403.41215349797619
 21
276.98091488240982
 72
               1
 10
403.41215349797619
 20
276.98091488240982
 11
403.41215349797619
 21
276.98091488240982
 72
               1
 10
403.41215349797619
 20
276.98091488240982
 11
403.51728092285646
 21
277.04219292738173
 72
               1
 10
403.51728092285646
 20
277.04219292738173
 11
403.51728092285646
 21
277.04219292738173
 72
               1
 10
403.51728092285646
 20
277.04219292738173
 11
403.51728092285646
 21
277.04219292738173
 72
               1
 10
403.51728092285646
 20
277.04219292738173
 11
403.51728092285646
 21
277.04219292738173
 72
               1
 10
403.51728092285646
 20
277.04219292738173
 11
403.62021470593879
 21
277.10708830902161
 72
               1
 10
403.62021470593879
 20
277.10708830902161
 11
403.62021470593879
 21
277.10708830902161
 72
               1
 10
403.62021470593879
 20
277.10708830902161
 11
403.62021470593879
 21
277.10708830902161
 72
               1
 10
403.62021470593879
 20
277.10708830902161
 11
403.62021470593879
 21
277.10708830902161
 72
               1
 10
403.62021470593879
 20
277.10708830902161
 11
403.72083042948668
 21
277.17552258722037
 72
               1
 10
403.72083042948668
 20
277.17552258722037
 11
403.72083042948668
 21
277.17552258722037
 72
               1
 10
403.72083042948668
 20
277.17552258722037
 11
403.72083042948668
 21
277.17552258722037
 72
               1
 10
403.72083042948668
 20
277.17552258722037
 11
403.72083042948668
 21
277.17552258722037
 72
               1
 10
403.72083042948668
 20
277.17552258722037
 11
403.81900647763666
 21
277.24741304435895
 72
               1
 10
403.81900647763666
 20
277.24741304435895
 11
403.81900647763666
 21
277.24741304435895
 72
               1
 10
403.81900647763666
 20
277.24741304435895
 11
403.81900647763666
 21
277.24741304435895
 72
               1
 10
403.81900647763666
 20
277.24741304435895
 11
403.81900647763666
 21
277.24741304435895
 72
               1
 10
403.81900647763666
 20
277.24741304435895
 11
403.91462418340177
 21
277.32267278526899
 72
               1
 10
403.91462418340177
 20
277.32267278526899
 11
403.91462418340177
 21
277.32267278526899
 72
               1
 10
403.91462418340177
 20
277.32267278526899
 11
403.91462418340177
 21
277.32267278526899
 72
               1
 10
403.91462418340177
 20
277.32267278526899
 11
403.91462418340177
 21
277.32267278526899
 72
               1
 10
403.91462418340177
 20
277.32267278526899
 11
404.00756797210795
 21
277.40121084227951
 72
               1
 10
404.00756797210795
 20
277.40121084227951
 11
404.00756797210795
 21
277.40121084227951
 72
               1
 10
404.00756797210795
 20
277.40121084227951
 11
404.00756797210795
 21
277.40121084227951
 72
               1
 10
404.00756797210795
 20
277.40121084227951
 11
404.00756797210795
 21
277.40121084227951
 72
               1
 10
404.00756797210795
 20
277.40121084227951
 11
404.09772550108335
 21
277.48293228516025
 72
               1
 10
404.09772550108335
 20
277.48293228516025
 11
404.09772550108335
 21
277.48293228516025
 72
               1
 10
404.09772550108335
 20
277.48293228516025
 11
404.09772550108335
 21
277.48293228516025
 72
               1
 10
404.09772550108335
 20
277.48293228516025
 11
404.09772550108335
 21
277.48293228516025
 72
               1
 10
404.09772550108335
 20
277.48293228516025
 11
404.1849877954586
 21
277.56773833587624
 72
               1
 10
404.1849877954586
 20
277.56773833587624
 11
404.1849877954586
 21
277.56773833587624
 72
               1
 10
404.1849877954586
 20
277.56773833587624
 11
404.1849877954586
 21
277.56773833587624
 72
               1
 10
404.1849877954586
 20
277.56773833587624
 11
404.1849877954586
 21
277.56773833587624
 72
               1
 10
404.1849877954586
 20
277.56773833587624
 11
404.26924937987803
 21
277.65552648797541
 72
               1
 10
404.26924937987803
 20
277.65552648797541
 11
404.26924937987803
 21
277.65552648797541
 72
               1
 10
404.26924937987803
 20
277.65552648797541
 11
404.26924937987803
 21
277.65552648797541
 72
               1
 10
404.26924937987803
 20
277.65552648797541
 11
404.26924937987803
 21
277.65552648797541
 72
               1
 10
404.26924937987803
 20
277.65552648797541
 11
404.35040840599447
 21
277.74619063048897
 72
               1
 10
404.35040840599447
 20
277.74619063048897
 11
404.35040840599447
 21
277.74619063048897
 72
               1
 10
404.35040840599447
 20
277.74619063048897
 11
404.35040840599447
 21
277.74619063048897
 72
               1
 10
404.35040840599447
 20
277.74619063048897
 11
404.35040840599447
 21
277.74619063048897
 72
               1
 10
404.35040840599447
 20
277.74619063048897
 11
404.42836677557113
 21
277.83962117619387
 72
               1
 10
404.42836677557113
 20
277.83962117619387
 11
404.42836677557113
 21
277.83962117619387
 72
               1
 10
404.42836677557113
 20
277.83962117619387
 11
404.42836677557113
 21
277.83962117619387
 72
               1
 10
404.42836677557113
 20
277.83962117619387
 11
404.42836677557113
 21
277.83962117619387
 72
               1
 10
404.42836677557113
 20
277.83962117619387
 11
404.50303025906157
 21
277.93570519406796
 72
               1
 10
404.50303025906157
 20
277.93570519406796
 11
404.50303025906157
 21
277.93570519406796
 72
               1
 10
404.50303025906157
 20
277.93570519406796
 11
404.50303025906157
 21
277.93570519406796
 72
               1
 10
404.50303025906157
 20
277.93570519406796
 11
404.50303025906157
 21
277.93570519406796
 72
               1
 10
404.50303025906157
 20
277.93570519406796
 11
404.5743086094966
 21
278.03432654579785
 72
               1
 10
404.5743086094966
 20
278.03432654579785
 11
404.5743086094966
 21
278.03432654579785
 72
               1
 10
404.5743086094966
 20
278.03432654579785
 11
404.5743086094966
 21
278.03432654579785
 72
               1
 10
404.5743086094966
 20
278.03432654579785
 11
404.5743086094966
 21
278.03432654579785
 72
               1
 10
404.5743086094966
 20
278.03432654579785
 11
404.64211567157452
 21
278.13536602615034
 72
               1
 10
404.64211567157452
 20
278.13536602615034
 11
404.64211567157452
 21
278.13536602615034
 72
               1
 10
404.64211567157452
 20
278.13536602615034
 11
404.64211567157452
 21
278.13536602615034
 72
               1
 10
404.64211567157452
 20
278.13536602615034
 11
404.64211567157452
 21
278.13536602615034
 72
               1
 10
404.64211567157452
 20
278.13536602615034
 11
404.70636948579829
 21
278.23870150706546
 72
               1
 10
404.70636948579829
 20
278.23870150706546
 11
404.70636948579829
 21
278.23870150706546
 72
               1
 10
404.70636948579829
 20
278.23870150706546
 11
404.70636948579829
 21
278.23870150706546
 72
               1
 10
404.70636948579829
 20
278.23870150706546
 11
404.70636948579829
 21
278.23870150706546
 72
               1
 10
404.70636948579829
 20
278.23870150706546
 11
404.76699238753588
 21
278.34420808526022
 72
               1
 10
404.76699238753588
 20
278.34420808526022
 11
404.76699238753588
 21
278.34420808526022
 72
               1
 10
404.76699238753588
 20
278.34420808526022
 11
404.76699238753588
 21
278.34420808526022
 72
               1
 10
404.76699238753588
 20
278.34420808526022
 11
404.76699238753588
 21
278.34420808526022
 72
               1
 10
404.76699238753588
 20
278.34420808526022
 11
404.82391110090009
 21
278.4517582332229
 72
               1
 10
404.82391110090009
 20
278.4517582332229
 11
404.82391110090009
 21
278.4517582332229
 72
               1
 10
404.82391110090009
 20
278.4517582332229
 11
404.82391110090009
 21
278.4517582332229
 72
               1
 10
404.82391110090009
 20
278.4517582332229
 11
404.82391110090009
 21
278.4517582332229
 72
               1
 10
404.82391110090009
 20
278.4517582332229
 11
404.87705682731701
 21
278.56122195333785
 72
               1
 10
404.87705682731701
 20
278.56122195333785
 11
404.87705682731701
 21
278.56122195333785
 72
               1
 10
404.87705682731701
 20
278.56122195333785
 11
404.87705682731701
 21
278.56122195333785
 72
               1
 10
404.87705682731701
 20
278.56122195333785
 11
404.87705682731701
 21
278.56122195333785
 72
               1
 10
404.87705682731701
 20
278.56122195333785
 11
404.92636532868107
 21
278.67246693502796
 72
               1
 10
404.92636532868107
 20
278.67246693502796
 11
404.92636532868107
 21
278.67246693502796
 72
               1
 10
404.92636532868107
 20
278.67246693502796
 11
404.92636532868107
 21
278.67246693502796
 72
               1
 10
404.92636532868107
 20
278.67246693502796
 11
404.92636532868107
 21
278.67246693502796
 72
               1
 10
404.92636532868107
 20
278.67246693502796
 11
404.97177700500777
 21
278.78535871466931
 72
               1
 10
404.97177700500777
 20
278.78535871466931
 11
404.97177700500777
 21
278.78535871466931
 72
               1
 10
404.97177700500777
 20
278.78535871466931
 11
404.97177700500777
 21
278.78535871466931
 72
               1
 10
404.97177700500777
 20
278.78535871466931
 11
404.97177700500777
 21
278.78535871466931
 72
               1
 10
404.97177700500777
 20
278.78535871466931
 11
405.01323696646193
 21
278.89976083813792
 72
               1
 10
405.01323696646193
 20
278.89976083813792
 11
405.01323696646193
 21
278.89976083813792
 72
               1
 10
405.01323696646193
 20
278.89976083813792
 11
405.01323696646193
 21
278.89976083813792
 72
               1
 10
405.01323696646193
 20
278.89976083813792
 11
405.01323696646193
 21
278.89976083813792
 72
               1
 10
405.01323696646193
 20
278.89976083813792
 11
405.05069509971452
 21
279.0155350257229
 72
               1
 10
405.05069509971452
 20
279.0155350257229
 11
405.05069509971452
 21
279.0155350257229
 72
               1
 10
405.05069509971452
 20
279.0155350257229
 11
405.05069509971452
 21
279.0155350257229
 72
               1
 10
405.05069509971452
 20
279.0155350257229
 11
405.05069509971452
 21
279.0155350257229
 72
               1
 10
405.05069509971452
 20
279.0155350257229
 11
405.0841061285131
 21
279.13254133928069
 72
               1
 10
405.0841061285131
 20
279.13254133928069
 11
405.0841061285131
 21
279.13254133928069
 72
               1
 10
405.0841061285131
 20
279.13254133928069
 11
405.0841061285131
 21
279.13254133928069
 72
               1
 10
405.0841061285131
 20
279.13254133928069
 11
405.0841061285131
 21
279.13254133928069
 72
               1
 10
405.0841061285131
 20
279.13254133928069
 11
405.11342966840073
 21
279.25063835137928
 72
               1
 10
405.11342966840073
 20
279.25063835137928
 11
405.11342966840073
 21
279.25063835137928
 72
               1
 10
405.11342966840073
 20
279.25063835137928
 11
405.11342966840073
 21
279.25063835137928
 72
               1
 10
405.11342966840073
 20
279.25063835137928
 11
405.11342966840073
 21
279.25063835137928
 72
               1
 10
405.11342966840073
 20
279.25063835137928
 11
405.13863027553759
 21
279.36968331623405
 72
               1
 10
405.13863027553759
 20
279.36968331623405
 11
405.13863027553759
 21
279.36968331623405
 72
               1
 10
405.13863027553759
 20
279.36968331623405
 11
405.13863027553759
 21
279.36968331623405
 72
               1
 10
405.13863027553759
 20
279.36968331623405
 11
405.13863027553759
 21
279.36968331623405
 72
               1
 10
405.13863027553759
 20
279.36968331623405
 11
405.15967748954188
 21
279.4895323422644
 72
               1
 10
405.15967748954188
 20
279.4895323422644
 11
405.15967748954188
 21
279.4895323422644
 72
               1
 10
405.15967748954188
 20
279.4895323422644
 11
405.15967748954188
 21
279.4895323422644
 72
               1
 10
405.15967748954188
 20
279.4895323422644
 11
405.15967748954188
 21
279.4895323422644
 72
               1
 10
405.15967748954188
 20
279.4895323422644
 11
405.17654587030427
 21
279.61004056600189
 72
               1
 10
405.17654587030427
 20
279.61004056600189
 11
405.17654587030427
 21
279.61004056600189
 72
               1
 10
405.17654587030427
 20
279.61004056600189
 11
405.17654587030427
 21
279.61004056600189
 72
               1
 10
405.17654587030427
 20
279.61004056600189
 11
405.17654587030427
 21
279.61004056600189
 72
               1
 10
405.17654587030427
 20
279.61004056600189
 11
405.18921502873616
 21
279.73106232719522
 72
               1
 10
405.18921502873616
 20
279.73106232719522
 11
405.18921502873616
 21
279.73106232719522
 72
               1
 10
405.18921502873616
 20
279.73106232719522
 11
405.18921502873616
 21
279.73106232719522
 72
               1
 10
405.18921502873616
 20
279.73106232719522
 11
405.18921502873616
 21
279.73106232719522
 72
               1
 10
405.18921502873616
 20
279.73106232719522
 11
405.1976696514206
 21
279.85245134487388
 72
               1
 10
405.1976696514206
 20
279.85245134487388
 11
405.1976696514206
 21
279.85245134487388
 72
               1
 10
405.1976696514206
 20
279.85245134487388
 11
405.1976696514206
 21
279.85245134487388
 72
               1
 10
405.1976696514206
 20
279.85245134487388
 11
405.1976696514206
 21
279.85245134487388
 72
               1
 10
405.1976696514206
 20
279.85245134487388
 11
405.20189951911686
 21
279.97406089415938
 72
               1
 10
405.20189951911686
 20
279.97406089415938
 11
405.20189951911686
 21
279.97406089415938
 72
               1
 10
405.20189951911686
 20
279.97406089415938
 11
405.20189951911686
 21
279.97406089415938
 72
               1
 10
405.20189951911686
 20
279.97406089415938
 11
405.20189951911686
 21
279.97406089415938
 72
               1
 10
405.20189951911686
 20
279.97406089415938
 11
405.20189951911686
 21
280.09574398360758
 72
               1
 10
405.20189951911686
 20
280.09574398360758
 11
405.20189951911686
 21
280.09574398360758
 72
               1
 10
405.20189951911686
 20
280.09574398360758
 11
405.20189951911686
 21
280.09574398360758
 72
               1
 10
405.20189951911686
 20
280.09574398360758
 11
405.20189951911686
 21
280.09574398360758
 72
               1
 10
405.20189951911686
 20
280.09574398360758
 11
405.1976696514206
 21
280.21735353289125
 72
               1
 10
405.1976696514206
 20
280.21735353289125
 11
405.1976696514206
 21
280.21735353289125
 72
               1
 10
405.1976696514206
 20
280.21735353289125
 11
405.1976696514206
 21
280.21735353289125
 72
               1
 10
405.1976696514206
 20
280.21735353289125
 11
405.1976696514206
 21
280.21735353289125
 72
               1
 10
405.1976696514206
 20
280.21735353289125
 11
405.18921502873616
 21
280.33874255056992
 72
               1
 10
405.18921502873616
 20
280.33874255056992
 11
405.18921502873616
 21
280.33874255056992
 72
               1
 10
405.18921502873616
 20
280.33874255056992
 11
405.18921502873616
 21
280.33874255056992
 72
               1
 10
405.18921502873616
 20
280.33874255056992
 11
405.18921502873616
 21
280.33874255056992
 72
               1
 10
405.18921502873616
 20
280.33874255056992
 11
405.17654587030427
 21
280.45976431176325
 72
               1
 10
405.17654587030427
 20
280.45976431176325
 11
405.17654587030427
 21
280.45976431176325
 72
               1
 10
405.17654587030427
 20
280.45976431176325
 11
405.17654587030427
 21
280.45976431176325
 72
               1
 10
405.17654587030427
 20
280.45976431176325
 11
405.17654587030427
 21
280.45976431176325
 72
               1
 10
405.17654587030427
 20
280.45976431176325
 11
405.1596774895437
 21
280.58027253550074
 72
               1
 10
405.1596774895437
 20
280.58027253550074
 11
405.1596774895437
 21
280.58027253550074
 72
               1
 10
405.1596774895437
 20
280.58027253550074
 11
405.1596774895437
 21
280.58027253550074
 72
               1
 10
405.1596774895437
 20
280.58027253550074
 11
405.1596774895437
 21
280.58027253550074
 72
               1
 10
405.1596774895437
 20
280.58027253550074
 11
405.13863027553941
 21
280.70012156153109
 72
               1
 10
405.13863027553941
 20
280.70012156153109
 11
405.13863027553941
 21
280.70012156153109
 72
               1
 10
405.13863027553941
 20
280.70012156153109
 11
405.13863027553941
 21
280.70012156153109
 72
               1
 10
405.13863027553941
 20
280.70012156153109
 11
405.13863027553941
 21
280.70012156153109
 72
               1
 10
405.13863027553941
 20
280.70012156153109
 11
405.11342966840073
 21
280.81916652638586
 72
               1
 10
405.11342966840073
 20
280.81916652638586
 11
405.11342966840073
 21
280.81916652638586
 72
               1
 10
405.11342966840073
 20
280.81916652638586
 11
405.11342966840073
 21
280.81916652638586
 72
               1
 10
405.11342966840073
 20
280.81916652638586
 11
405.11342966840073
 21
280.81916652638586
 72
               1
 10
405.11342966840073
 20
280.81916652638586
 11
405.0841061285131
 21
280.93726353848626
 72
               1
 10
405.0841061285131
 20
280.93726353848626
 11
405.0841061285131
 21
280.93726353848626
 72
               1
 10
405.0841061285131
 20
280.93726353848626
 11
405.0841061285131
 21
280.93726353848626
 72
               1
 10
405.0841061285131
 20
280.93726353848626
 11
405.0841061285131
 21
280.93726353848626
 72
               1
 10
405.0841061285131
 20
280.93726353848626
 11
405.05069509971634
 21
281.05426985204406
 72
               1
 10
405.05069509971634
 20
281.05426985204406
 11
405.05069509971634
 21
281.05426985204406
 72
               1
 10
405.05069509971634
 20
281.05426985204406
 11
405.05069509971634
 21
281.05426985204406
 72
               1
 10
405.05069509971634
 20
281.05426985204406
 11
405.05069509971634
 21
281.05426985204406
 72
               1
 10
405.05069509971634
 20
281.05426985204406
 11
405.01323696646375
 21
281.17004403962721
 72
               1
 10
405.01323696646375
 20
281.17004403962721
 11
405.01323696646375
 21
281.17004403962721
 72
               1
 10
405.01323696646375
 20
281.17004403962721
 11
405.01323696646375
 21
281.17004403962721
 72
               1
 10
405.01323696646375
 20
281.17004403962721
 11
405.01323696646375
 21
281.17004403962721
 72
               1
 10
405.01323696646375
 20
281.17004403962721
 11
404.97177700500959
 21
281.28444616309582
 72
               1
 10
404.97177700500959
 20
281.28444616309582
 11
404.97177700500959
 21
281.28444616309582
 72
               1
 10
404.97177700500959
 20
281.28444616309582
 11
404.97177700500959
 21
281.28444616309582
 72
               1
 10
404.97177700500959
 20
281.28444616309582
 11
404.97177700500959
 21
281.28444616309582
 72
               1
 10
404.97177700500959
 20
281.28444616309582
 11
404.92636532868289
 21
281.397337942739
 72
               1
 10
404.92636532868289
 20
281.397337942739
 11
404.92636532868289
 21
281.397337942739
 72
               1
 10
404.92636532868289
 20
281.397337942739
 11
404.92636532868289
 21
281.397337942739
 72
               1
 10
404.92636532868289
 20
281.397337942739
 11
404.92636532868289
 21
281.397337942739
 72
               1
 10
404.92636532868289
 20
281.397337942739
 11
404.87705682731882
 21
281.50858292442729
 72
               1
 10
404.87705682731882
 20
281.50858292442729
 11
404.87705682731882
 21
281.50858292442729
 72
               1
 10
404.87705682731882
 20
281.50858292442729
 11
404.87705682731882
 21
281.50858292442729
 72
               1
 10
404.87705682731882
 20
281.50858292442729
 11
404.87705682731882
 21
281.50858292442729
 72
               1
 10
404.87705682731882
 20
281.50858292442729
 11
404.82391110090191
 21
281.61804664454405
 72
               1
 10
404.82391110090191
 20
281.61804664454405
 11
404.82391110090191
 21
281.61804664454405
 72
               1
 10
404.82391110090191
 20
281.61804664454405
 11
404.82391110090191
 21
281.61804664454405
 72
               1
 10
404.82391110090191
 20
281.61804664454405
 11
404.82391110090191
 21
281.61804664454405
 72
               1
 10
404.82391110090191
 20
281.61804664454405
 11
404.7669923875377
 21
281.72559679250492
 72
               1
 10
404.7669923875377
 20
281.72559679250492
 11
404.7669923875377
 21
281.72559679250492
 72
               1
 10
404.7669923875377
 20
281.72559679250492
 11
404.7669923875377
 21
281.72559679250492
 72
               1
 10
404.7669923875377
 20
281.72559679250492
 11
404.7669923875377
 21
281.72559679250492
 72
               1
 10
404.7669923875377
 20
281.72559679250492
 11
404.70636948580011
 21
281.8311033707015
 72
               1
 10
404.70636948580011
 20
281.8311033707015
 11
404.70636948580011
 21
281.8311033707015
 72
               1
 10
404.70636948580011
 20
281.8311033707015
 11
404.70636948580011
 21
281.8311033707015
 72
               1
 10
404.70636948580011
 20
281.8311033707015
 11
404.70636948580011
 21
281.8311033707015
 72
               1
 10
404.70636948580011
 20
281.8311033707015
 11
404.64211567157633
 21
281.9344388516148
 72
               1
 10
404.64211567157633
 20
281.9344388516148
 11
404.64211567157633
 21
281.9344388516148
 72
               1
 10
404.64211567157633
 20
281.9344388516148
 11
404.64211567157633
 21
281.9344388516148
 72
               1
 10
404.64211567157633
 20
281.9344388516148
 11
404.64211567157633
 21
281.9344388516148
 72
               1
 10
404.64211567157633
 20
281.9344388516148
 11
404.57430860949842
 21
282.03547833196728
 72
               1
 10
404.57430860949842
 20
282.03547833196728
 11
404.57430860949842
 21
282.03547833196728
 72
               1
 10
404.57430860949842
 20
282.03547833196728
 11
404.57430860949842
 21
282.03547833196728
 72
               1
 10
404.57430860949842
 20
282.03547833196728
 11
404.57430860949842
 21
282.03547833196728
 72
               1
 10
404.57430860949842
 20
282.03547833196728
 11
404.50303025906339
 21
282.13409968369899
 72
               1
 10
404.50303025906339
 20
282.13409968369899
 11
404.50303025906339
 21
282.13409968369899
 72
               1
 10
404.50303025906339
 20
282.13409968369899
 11
404.50303025906339
 21
282.13409968369899
 72
               1
 10
404.50303025906339
 20
282.13409968369899
 11
404.50303025906339
 21
282.13409968369899
 72
               1
 10
404.50303025906339
 20
282.13409968369899
 11
404.42836677557477
 21
282.23018370157308
 72
               1
 10
404.42836677557477
 20
282.23018370157308
 11
404.42836677557477
 21
282.23018370157308
 72
               1
 10
404.42836677557477
 20
282.23018370157308
 11
404.42836677557477
 21
282.23018370157308
 72
               1
 10
404.42836677557477
 20
282.23018370157308
 11
404.42836677557477
 21
282.23018370157308
 72
               1
 10
404.42836677557477
 20
282.23018370157308
 11
404.35040840599811
 21
282.32361424727799
 72
               1
 10
404.35040840599811
 20
282.32361424727799
 11
404.35040840599811
 21
282.32361424727799
 72
               1
 10
404.35040840599811
 20
282.32361424727799
 11
404.35040840599811
 21
282.32361424727799
 72
               1
 10
404.35040840599811
 20
282.32361424727799
 11
404.35040840599811
 21
282.32361424727799
 72
               1
 10
404.35040840599811
 20
282.32361424727799
 11
404.26924937988167
 21
282.41427838979155
 72
               1
 10
404.26924937988167
 20
282.41427838979155
 11
404.26924937988167
 21
282.41427838979155
 72
               1
 10
404.26924937988167
 20
282.41427838979155
 11
404.26924937988167
 21
282.41427838979155
 72
               1
 10
404.26924937988167
 20
282.41427838979155
 11
404.26924937988167
 21
282.41427838979155
 72
               1
 10
404.26924937988167
 20
282.41427838979155
 11
404.18498779546223
 21
282.50206654189071
 72
               1
 10
404.18498779546223
 20
282.50206654189071
 11
404.18498779546223
 21
282.50206654189071
 72
               1
 10
404.18498779546223
 20
282.50206654189071
 11
404.18498779546223
 21
282.50206654189071
 72
               1
 10
404.18498779546223
 20
282.50206654189071
 11
404.18498779546223
 21
282.50206654189071
 72
               1
 10
404.18498779546223
 20
282.50206654189071
 11
404.09772550108698
 21
282.58687259260671
 72
               1
 10
404.09772550108698
 20
282.58687259260671
 11
404.09772550108698
 21
282.58687259260671
 72
               1
 10
404.09772550108698
 20
282.58687259260671
 11
404.09772550108698
 21
282.58687259260671
 72
               1
 10
404.09772550108698
 20
282.58687259260671
 11
404.09772550108698
 21
282.58687259260671
 72
               1
 10
404.09772550108698
 20
282.58687259260671
 11
404.00756797211159
 21
282.66859403549108
 72
               1
 10
404.00756797211159
 20
282.66859403549108
 11
404.00756797211159
 21
282.66859403549108
 72
               1
 10
404.00756797211159
 20
282.66859403549108
 11
404.00756797211159
 21
282.66859403549108
 72
               1
 10
404.00756797211159
 20
282.66859403549108
 11
404.00756797211159
 21
282.66859403549108
 72
               1
 10
404.00756797211159
 20
282.66859403549108
 11
403.91462418340541
 21
282.74713209249796
 72
               1
 10
403.91462418340541
 20
282.74713209249796
 11
403.91462418340541
 21
282.74713209249796
 72
               1
 10
403.91462418340541
 20
282.74713209249796
 11
403.91462418340541
 21
282.74713209249796
 72
               1
 10
403.91462418340541
 20
282.74713209249796
 11
403.91462418340541
 21
282.74713209249796
 72
               1
 10
403.91462418340541
 20
282.74713209249796
 11
403.8190064776403
 21
282.82239183340982
 72
               1
 10
403.8190064776403
 20
282.82239183340982
 11
403.8190064776403
 21
282.82239183340982
 72
               1
 10
403.8190064776403
 20
282.82239183340982
 11
403.8190064776403
 21
282.82239183340982
 72
               1
 10
403.8190064776403
 20
282.82239183340982
 11
403.8190064776403
 21
282.82239183340982
 72
               1
 10
403.8190064776403
 20
282.82239183340982
 11
403.72083042949032
 21
282.89428229054658
 72
               1
 10
403.72083042949032
 20
282.89428229054658
 11
403.72083042949032
 21
282.89428229054658
 72
               1
 10
403.72083042949032
 20
282.89428229054658
 11
403.72083042949032
 21
282.89428229054658
 72
               1
 10
403.72083042949032
 20
282.89428229054658
 11
403.72083042949032
 21
282.89428229054658
 72
               1
 10
403.72083042949032
 20
282.89428229054658
 11
403.62021470594425
 21
282.96271656874899
 72
               1
 10
403.62021470594425
 20
282.96271656874899
 11
403.62021470594425
 21
282.96271656874899
 72
               1
 10
403.62021470594425
 20
282.96271656874899
 11
403.62021470594425
 21
282.96271656874899
 72
               1
 10
403.62021470594425
 20
282.96271656874899
 11
403.62021470594425
 21
282.96271656874899
 72
               1
 10
403.62021470594425
 20
282.96271656874899
 11
403.5172809228601
 21
283.02761195038704
 72
               1
 10
403.5172809228601
 20
283.02761195038704
 11
403.5172809228601
 21
283.02761195038704
 72
               1
 10
403.5172809228601
 20
283.02761195038704
 11
403.5172809228601
 21
283.02761195038704
 72
               1
 10
403.5172809228601
 20
283.02761195038704
 11
403.5172809228601
 21
283.02761195038704
 72
               1
 10
403.5172809228601
 20
283.02761195038704
 11
403.41215349797983
 21
283.08888999535895
 72
               1
 10
403.41215349797983
 20
283.08888999535895
 11
403.41215349797983
 21
283.08888999535895
 72
               1
 10
403.41215349797983
 20
283.08888999535895
 11
403.41215349797983
 21
283.08888999535895
 72
               1
 10
403.41215349797983
 20
283.08888999535895
 11
403.41215349797983
 21
283.08888999535895
 72
               1
 10
403.41215349797983
 20
283.08888999535895
 11
403.30495950052807
 21
283.14647663589506
 72
               1
 10
403.30495950052807
 20
283.14647663589506
 11
403.30495950052807
 21
283.14647663589506
 72
               1
 10
403.30495950052807
 20
283.14647663589506
 11
403.30495950052807
 21
283.14647663589506
 72
               1
 10
403.30495950052807
 20
283.14647663589506
 11
403.30495950052807
 21
283.14647663589506
 72
               1
 10
403.30495950052807
 20
283.14647663589506
 11
403.19582849763663
 21
283.20030226608844
 72
               1
 10
403.19582849763663
 20
283.20030226608844
 11
403.19582849763663
 21
283.20030226608844
 72
               1
 10
403.19582849763663
 20
283.20030226608844
 11
403.19582849763663
 21
283.20030226608844
 72
               1
 10
403.19582849763663
 20
283.20030226608844
 11
403.19582849763663
 21
283.20030226608844
 72
               1
 10
403.19582849763663
 20
283.20030226608844
 11
403.08489239772223
 21
283.25030182602325
 72
               1
 10
403.08489239772223
 20
283.25030182602325
 11
403.08489239772223
 21
283.25030182602325
 72
               1
 10
403.08489239772223
 20
283.25030182602325
 11
403.08489239772223
 21
283.25030182602325
 72
               1
 10
403.08489239772223
 20
283.25030182602325
 11
403.08489239772223
 21
283.25030182602325
 72
               1
 10
403.08489239772223
 20
283.25030182602325
 11
402.97228529105394
 21
283.296414880415
 72
               1
 10
402.97228529105394
 20
283.296414880415
 11
402.97228529105394
 21
283.296414880415
 72
               1
 10
402.97228529105394
 20
283.296414880415
 11
402.97228529105394
 21
283.296414880415
 72
               1
 10
402.97228529105394
 20
283.296414880415
 11
402.97228529105394
 21
283.296414880415
 72
               1
 10
402.97228529105394
 20
283.296414880415
 11
402.85814328767208
 21
283.33858569166671
 72
               1
 10
402.85814328767208
 20
283.33858569166671
 11
402.85814328767208
 21
283.33858569166671
 72
               1
 10
402.85814328767208
 20
283.33858569166671
 11
402.85814328767208
 21
283.33858569166671
 72
               1
 10
402.85814328767208
 20
283.33858569166671
 11
402.85814328767208
 21
283.33858569166671
 72
               1
 10
402.85814328767208
 20
283.33858569166671
 11
402.7426043528734
 21
283.37676328723512
 72
               1
 10
402.7426043528734
 20
283.37676328723512
 11
402.7426043528734
 21
283.37676328723512
 72
               1
 10
402.7426043528734
 20
283.37676328723512
 11
402.7426043528734
 21
283.37676328723512
 72
               1
 10
402.7426043528734
 20
283.37676328723512
 11
402.7426043528734
 21
283.37676328723512
 72
               1
 10
402.7426043528734
 20
283.37676328723512
 11
402.62580814044611
 21
283.41090152123627
 72
               1
 10
402.62580814044611
 20
283.41090152123627
 11
402.62580814044611
 21
283.41090152123627
 72
               1
 10
402.62580814044611
 20
283.41090152123627
 11
402.62580814044611
 21
283.41090152123627
 72
               1
 10
402.62580814044611
 20
283.41090152123627
 11
402.62580814044611
 21
283.41090152123627
 72
               1
 10
402.62580814044611
 20
283.41090152123627
 11
402.50789582387495
 21
283.44095913023205
 72
               1
 10
402.50789582387495
 20
283.44095913023205
 11
402.50789582387495
 21
283.44095913023205
 72
               1
 10
402.50789582387495
 20
283.44095913023205
 11
402.50789582387495
 21
283.44095913023205
 72
               1
 10
402.50789582387495
 20
283.44095913023205
 11
402.50789582387495
 21
283.44095913023205
 72
               1
 10
402.50789582387495
 20
283.44095913023205
 11
381.62531109071222
 21
283.44095913023386
 97
        0
 92
        1
 93
       49
 72
               1
 10
390.41870788683025
 20
282.32855534885505
 11
388.92793563794055
 21
277.49874322074731
 72
               1
 10
388.92793563794055
 20
277.49874322074731
 11
388.92793563794055
 21
277.49874322074731
 72
               1
 10
388.92793563794055
 20
277.49874322074731
 11
388.92793563794055
 21
277.49874322074731
 72
               1
 10
388.92793563794055
 20
277.49874322074731
 11
388.92793563794055
 21
277.49874322074731
 72
               1
 10
388.92793563794055
 20
277.49874322074731
 11
387.82060210117868
 21
277.49874322074731
 72
               1
 10
387.82060210117868
 20
277.49874322074731
 11
387.82060210117868
 21
277.49874322074731
 72
               1
 10
387.82060210117868
 20
277.49874322074731
 11
387.82060210117868
 21
277.49874322074731
 72
               1
 10
387.82060210117868
 20
277.49874322074731
 11
387.82060210117868
 21
277.49874322074731
 72
               1
 10
387.82060210117868
 20
277.49874322074731
 11
387.14056300890968
 21
280.61708285540055
 72
               1
 10
387.14056300890968
 20
280.61708285540055
 11
387.14056300890968
 21
280.61708285540055
 72
               1
 10
387.14056300890968
 20
280.61708285540055
 11
387.14056300890968
 21
280.61708285540055
 72
               1
 10
387.14056300890968
 20
280.61708285540055
 11
387.14056300890968
 21
280.61708285540055
 72
               1
 10
387.14056300890968
 20
280.61708285540055
 11
386.46490277577266
 21
277.49874322074731
 72
               1
 10
386.46490277577266
 20
277.49874322074731
 11
386.46490277577266
 21
277.49874322074731
 72
               1
 10
386.46490277577266
 20
277.49874322074731
 11
386.46490277577266
 21
277.49874322074731
 72
               1
 10
386.46490277577266
 20
277.49874322074731
 11
386.46490277577266
 21
277.49874322074731
 72
               1
 10
386.46490277577266
 20
277.49874322074731
 11
385.37322334906946
 21
277.49874322074731
 72
               1
 10
385.37322334906946
 20
277.49874322074731
 11
385.37322334906946
 21
277.49874322074731
 72
               1
 10
385.37322334906946
 20
277.49874322074731
 11
385.37322334906946
 21
277.49874322074731
 72
               1
 10
385.37322334906946
 20
277.49874322074731
 11
385.37322334906946
 21
277.49874322074731
 72
               1
 10
385.37322334906946
 20
277.49874322074731
 11
383.87194026663326
 21
282.32911128029275
 72
               1
 10
383.87194026663326
 20
282.32911128029275
 11
383.87194026663326
 21
282.32911128029275
 72
               1
 10
383.87194026663326
 20
282.32911128029275
 11
383.87194026663326
 21
282.32911128029275
 72
               1
 10
383.87194026663326
 20
282.32911128029275
 11
383.87194026663326
 21
282.32911128029275
 72
               1
 10
383.87194026663326
 20
282.32911128029275
 11
384.97148492735994
 21
282.32911128029275
 72
               1
 10
384.97148492735994
 20
282.32911128029275
 11
384.97148492735994
 21
282.32911128029275
 72
               1
 10
384.97148492735994
 20
282.32911128029275
 11
384.97148492735994
 21
282.32911128029275
 72
               1
 10
384.97148492735994
 20
282.32911128029275
 11
384.97148492735994
 21
282.32911128029275
 72
               1
 10
384.97148492735994
 20
282.32911128029275
 11
385.8350909731156
 21
279.55046472905644
 72
               1
 10
385.8350909731156
 20
279.55046472905644
 11
385.8350909731156
 21
279.55046472905644
 72
               1
 10
385.8350909731156
 20
279.55046472905644
 11
385.8350909731156
 21
279.55046472905644
 72
               1
 10
385.8350909731156
 20
279.55046472905644
 11
385.8350909731156
 21
279.55046472905644
 72
               1
 10
385.8350909731156
 20
279.55046472905644
 11
386.43714886179021
 21
282.32911128029275
 72
               1
 10
386.43714886179021
 20
282.32911128029275
 11
386.43714886179021
 21
282.32911128029275
 72
               1
 10
386.43714886179021
 20
282.32911128029275
 11
386.43714886179021
 21
282.32911128029275
 72
               1
 10
386.43714886179021
 20
282.32911128029275
 11
386.43714886179021
 21
282.32911128029275
 72
               1
 10
386.43714886179021
 20
282.32911128029275
 11
387.84188627050332
 21
282.32911128029639
 72
               1
 10
387.84188627050332
 20
282.32911128029639
 11
387.84188627050332
 21
282.32911128029639
 72
               1
 10
387.84188627050332
 20
282.32911128029639
 11
387.84188627050332
 21
282.32911128029639
 72
               1
 10
387.84188627050332
 20
282.32911128029639
 11
387.84188627050332
 21
282.32911128029639
 72
               1
 10
387.84188627050332
 20
282.32911128029639
 11
388.45384728732222
 21
279.52294570055722
 72
               1
 10
388.45384728732222
 20
279.52294570055722
 11
388.45384728732222
 21
279.52294570055722
 72
               1
 10
388.45384728732222
 20
279.52294570055722
 11
388.45384728732222
 21
279.52294570055722
 72
               1
 10
388.45384728732222
 20
279.52294570055722
 11
388.45384728732222
 21
279.52294570055722
 72
               1
 10
388.45384728732222
 20
279.52294570055722
 11
389.31982817725418
 21
282.32855534885505
 72
               1
 10
389.31982817725418
 20
282.32855534885505
 11
389.31982817725418
 21
282.32855534885505
 72
               1
 10
389.31982817725418
 20
282.32855534885505
 11
389.31982817725418
 21
282.32855534885505
 72
               1
 10
389.31982817725418
 20
282.32855534885505
 11
389.31982817725418
 21
282.32855534885505
 72
               1
 10
389.31982817725418
 20
282.32855534885505
 11
390.41870788683025
 21
282.32855534885505
 97
        0
 92
        1
 93
       29
 72
               1
 10
391.69982536785517
 20
282.32526483575032
 11
393.13909825190001
 21
282.32526483575032
 72
               1
 10
393.13909825190001
 20
282.32526483575032
 11
393.13909825190001
 21
282.32526483575032
 72
               1
 10
393.13909825190001
 20
282.32526483575032
 11
393.13909825190001
 21
282.32526483575032
 72
               1
 10
393.13909825190001
 20
282.32526483575032
 11
393.13909825190001
 21
282.32526483575032
 72
               1
 10
393.13909825190001
 20
282.32526483575032
 11
395.03632457155743
 21
277.49657959569424
 72
               1
 10
395.03632457155743
 20
277.49657959569424
 11
395.03632457155743
 21
277.49657959569424
 72
               1
 10
395.03632457155743
 20
277.49657959569424
 11
395.03632457155743
 21
277.49657959569424
 72
               1
 10
395.03632457155743
 20
277.49657959569424
 11
395.03632457155743
 21
277.49657959569424
 72
               1
 10
395.03632457155743
 20
277.49657959569424
 11
393.88591189918895
 21
277.49657959569424
 72
               1
 10
393.88591189918895
 20
277.49657959569424
 11
393.88591189918895
 21
277.49657959569424
 72
               1
 10
393.88591189918895
 20
277.49657959569424
 11
393.88591189918895
 21
277.49657959569424
 72
               1
 10
393.88591189918895
 20
277.49657959569424
 11
393.88591189918895
 21
277.49657959569424
 72
               1
 10
393.88591189918895
 20
277.49657959569424
 11
393.37072664351888
 21
278.88950337542894
 72
               1
 10
393.37072664351888
 20
278.88950337542894
 11
393.37072664351888
 21
278.88950337542894
 72
               1
 10
393.37072664351888
 20
278.88950337542894
 11
393.37072664351888
 21
278.88950337542894
 72
               1
 10
393.37072664351888
 20
278.88950337542894
 11
393.37072664351888
 21
278.88950337542894
 72
               1
 10
393.37072664351888
 20
278.88950337542894
 11
391.48420976221803
 21
278.88950337542894
 72
               1
 10
391.48420976221803
 20
278.88950337542894
 11
391.48420976221803
 21
278.88950337542894
 72
               1
 10
391.48420976221803
 20
278.88950337542894
 11
391.48420976221803
 21
278.88950337542894
 72
               1
 10
391.48420976221803
 20
278.88950337542894
 11
391.48420976221803
 21
278.88950337542894
 72
               1
 10
391.48420976221803
 20
278.88950337542894
 11
390.95842902875063
 21
277.49645939430241
 72
               1
 10
390.95842902875063
 20
277.49645939430241
 11
390.95842902875063
 21
277.49645939430241
 72
               1
 10
390.95842902875063
 20
277.49645939430241
 11
390.95842902875063
 21
277.49645939430241
 72
               1
 10
390.95842902875063
 20
277.49645939430241
 11
390.95842902875063
 21
277.49645939430241
 72
               1
 10
390.95842902875063
 20
277.49645939430241
 11
389.82651056462726
 21
277.49645939430241
 72
               1
 10
389.82651056462726
 20
277.49645939430241
 11
389.82651056462726
 21
277.49645939430241
 72
               1
 10
389.82651056462726
 20
277.49645939430241
 11
389.82651056462726
 21
277.49645939430241
 72
               1
 10
389.82651056462726
 20
277.49645939430241
 11
389.82651056462726
 21
277.49645939430241
 72
               1
 10
389.82651056462726
 20
277.49645939430241
 11
391.69982536785517
 21
282.32526483575032
 97
        0
 92
        1
 93
        9
 72
               1
 10
392.42110410967268
 20
281.28139087293141
 11
393.0858739159479
 21
279.58946613083219
 72
               1
 10
393.0858739159479
 20
279.58946613083219
 11
393.0858739159479
 21
279.58946613083219
 72
               1
 10
393.0858739159479
 20
279.58946613083219
 11
393.0858739159479
 21
279.58946613083219
 72
               1
 10
393.0858739159479
 20
279.58946613083219
 11
393.0858739159479
 21
279.58946613083219
 72
               1
 10
393.0858739159479
 20
279.58946613083219
 11
391.7647290074359
 21
279.58946613083219
 72
               1
 10
391.7647290074359
 20
279.58946613083219
 11
391.7647290074359
 21
279.58946613083219
 72
               1
 10
391.7647290074359
 20
279.58946613083219
 11
391.7647290074359
 21
279.58946613083219
 72
               1
 10
391.7647290074359
 20
279.58946613083219
 11
391.7647290074359
 21
279.58946613083219
 72
               1
 10
391.7647290074359
 20
279.58946613083219
 11
392.42110410967268
 21
281.28139087293141
 97
        0
 92
        1
 93
       45
 72
               1
 10
395.63138535509586
 20
282.33354370661812
 11
396.78822094834811
 21
282.33354370661812
 72
               1
 10
396.78822094834811
 20
282.33354370661812
 11
396.78822094834811
 21
282.33354370661812
 72
               1
 10
396.78822094834811
 20
282.33354370661812
 11
396.78822094834811
 21
282.33354370661812
 72
               1
 10
396.78822094834811
 20
282.33354370661812
 11
396.78822094834811
 21
282.33354370661812
 72
               1
 10
396.78822094834811
 20
282.33354370661812
 11
396.78822094834811
 21
280.86136687366718
 72
               1
 10
396.78822094834811
 20
280.86136687366718
 11
396.78822094834811
 21
280.86136687366718
 72
               1
 10
396.78822094834811
 20
280.86136687366718
 11
396.78822094834811
 21
280.86136687366718
 72
               1
 10
396.78822094834811
 20
280.86136687366718
 11
396.78822094834811
 21
280.86136687366718
 72
               1
 10
396.78822094834811
 20
280.86136687366718
 11
398.44940265932325
 21
282.33357375697062
 72
               1
 10
398.44940265932325
 20
282.33357375697062
 11
398.44940265932325
 21
282.33357375697062
 72
               1
 10
398.44940265932325
 20
282.33357375697062
 11
398.44940265932325
 21
282.33357375697062
 72
               1
 10
398.44940265932325
 20
282.33357375697062
 11
398.44940265932325
 21
282.33357375697062
 72
               1
 10
398.44940265932325
 20
282.33357375697062
 11
400.03250179848089
 21
282.33357375697062
 72
               1
 10
400.03250179848089
 20
282.33357375697062
 11
400.03250179848089
 21
282.33357375697062
 72
               1
 10
400.03250179848089
 20
282.33357375697062
 11
400.03250179848089
 21
282.33357375697062
 72
               1
 10
400.03250179848089
 20
282.33357375697062
 11
400.03250179848089
 21
282.33357375697062
 72
               1
 10
400.03250179848089
 20
282.33357375697062
 11
397.9495034659061
 21
280.48753580527602
 72
               1
 10
397.9495034659061
 20
280.48753580527602
 11
397.9495034659061
 21
280.48753580527602
 72
               1
 10
397.9495034659061
 20
280.48753580527602
 11
397.9495034659061
 21
280.48753580527602
 72
               1
 10
397.9495034659061
 20
280.48753580527602
 11
397.9495034659061
 21
280.48753580527602
 72
               1
 10
397.9495034659061
 20
280.48753580527602
 11
400.2705256905532
 21
277.50168815484915
 72
               1
 10
400.2705256905532
 20
277.50168815484915
 11
400.2705256905532
 21
277.50168815484915
 72
               1
 10
400.2705256905532
 20
277.50168815484915
 11
400.2705256905532
 21
277.50168815484915
 72
               1
 10
400.2705256905532
 20
277.50168815484915
 11
400.2705256905532
 21
277.50168815484915
 72
               1
 10
400.2705256905532
 20
277.50168815484915
 11
398.93936948763928
 21
277.50327428270441
 72
               1
 10
398.93936948763928
 20
277.50327428270441
 11
398.93936948763928
 21
277.50327428270441
 72
               1
 10
398.93936948763928
 20
277.50327428270441
 11
398.93936948763928
 21
277.50327428270441
 72
               1
 10
398.93936948763928
 20
277.50327428270441
 11
398.93936948763928
 21
277.50327428270441
 72
               1
 10
398.93936948763928
 20
277.50327428270441
 11
397.14770816498765
 21
279.80813276005767
 72
               1
 10
397.14770816498765
 20
279.80813276005767
 11
397.14770816498765
 21
279.80813276005767
 72
               1
 10
397.14770816498765
 20
279.80813276005767
 11
397.14770816498765
 21
279.80813276005767
 72
               1
 10
397.14770816498765
 20
279.80813276005767
 11
397.14770816498765
 21
279.80813276005767
 72
               1
 10
397.14770816498765
 20
279.80813276005767
 11
396.75711516662648
 21
279.46457688464773
 72
               1
 10
396.75711516662648
 20
279.46457688464773
 11
396.75711516662648
 21
279.46457688464773
 72
               1
 10
396.75711516662648
 20
279.46457688464773
 11
396.75711516662648
 21
279.46457688464773
 72
               1
 10
396.75711516662648
 20
279.46457688464773
 11
396.75711516662648
 21
279.46457688464773
 72
               1
 10
396.75711516662648
 20
279.46457688464773
 11
396.75711516662648
 21
277.50255961494088
 72
               1
 10
396.75711516662648
 20
277.50255961494088
 11
396.75711516662648
 21
277.50255961494088
 72
               1
 10
396.75711516662648
 20
277.50255961494088
 11
396.75711516662648
 21
277.50255961494088
 72
               1
 10
396.75711516662648
 20
277.50255961494088
 11
396.75711516662648
 21
277.50255961494088
 72
               1
 10
396.75711516662648
 20
277.50255961494088
 11
395.63138535509222
 21
277.50255961494088
 72
               1
 10
395.63138535509222
 20
277.50255961494088
 11
395.63138535509222
 21
277.50255961494088
 72
               1
 10
395.63138535509222
 20
277.50255961494088
 11
395.63138535509222
 21
277.50255961494088
 72
               1
 10
395.63138535509222
 20
277.50255961494088
 11
395.63138535509222
 21
277.50255961494088
 72
               1
 10
395.63138535509222
 20
277.50255961494088
 11
395.63138535509586
 21
282.33354370661812
 97
        0
 92
        1
 93
       13
 72
               1
 10
383.18699773270725
 20
277.49697025021862
 11
382.0513984718267
 21
277.49697025021862
 72
               1
 10
382.0513984718267
 20
277.49697025021862
 11
382.0513984718267
 21
277.49697025021862
 72
               1
 10
382.0513984718267
 20
277.49697025021862
 11
382.0513984718267
 21
277.49697025021862
 72
               1
 10
382.0513984718267
 20
277.49697025021862
 11
382.0513984718267
 21
277.49697025021862
 72
               1
 10
382.0513984718267
 20
277.49697025021862
 11
382.0513984718267
 21
282.32469387913636
 72
               1
 10
382.0513984718267
 20
282.32469387913636
 11
382.0513984718267
 21
282.32469387913636
 72
               1
 10
382.0513984718267
 20
282.32469387913636
 11
382.0513984718267
 21
282.32469387913636
 72
               1
 10
382.0513984718267
 20
282.32469387913636
 11
382.0513984718267
 21
282.32469387913636
 72
               1
 10
382.0513984718267
 20
282.32469387913636
 11
383.18699773270725
 21
282.32469387913636
 72
               1
 10
383.18699773270725
 20
282.32469387913636
 11
383.18699773270725
 21
282.32469387913636
 72
               1
 10
383.18699773270725
 20
282.32469387913636
 11
383.18699773270725
 21
282.32469387913636
 72
               1
 10
383.18699773270725
 20
282.32469387913636
 11
383.18699773270725
 21
282.32469387913636
 72
               1
 10
383.18699773270725
 20
282.32469387913636
 11
383.18699773270725
 21
277.49697025021862
 97
        0
 92
        1
 93
       13
 72
               1
 10
400.61236030783164
 20
282.31561867405082
 11
401.76705184829677
 21
282.31561867405082
 72
               1
 10
401.76705184829677
 20
282.31561867405082
 11
401.76705184829677
 21
282.31561867405082
 72
               1
 10
401.76705184829677
 20
282.31561867405082
 11
401.76705184829677
 21
282.31561867405082
 72
               1
 10
401.76705184829677
 20
282.31561867405082
 11
401.76705184829677
 21
282.31561867405082
 72
               1
 10
401.76705184829677
 20
282.31561867405082
 11
401.76705184829677
 21
277.51784021688775
 72
               1
 10
401.76705184829677
 20
277.51784021688775
 11
401.76705184829677
 21
277.51784021688775
 72
               1
 10
401.76705184829677
 20
277.51784021688775
 11
401.76705184829677
 21
277.51784021688775
 72
               1
 10
401.76705184829677
 20
277.51784021688775
 11
401.76705184829677
 21
277.51784021688775
 72
               1
 10
401.76705184829677
 20
277.51784021688775
 11
400.61236030783164
 21
277.51784021688775
 72
               1
 10
400.61236030783164
 20
277.51784021688775
 11
400.61236030783164
 21
277.51784021688775
 72
               1
 10
400.61236030783164
 20
277.51784021688775
 11
400.61236030783164
 21
277.51784021688775
 72
               1
 10
400.61236030783164
 20
277.51784021688775
 11
400.61236030783164
 21
277.51784021688775
 72
               1
 10
400.61236030783164
 20
277.51784021688775
 11
400.61236030783164
 21
282.31561867405082
 97
        0
 75
               0
 76
               1
 98
        0
  0
LINE
  5
1AC
100
AcDbEntity
  8
Layer00003
  6
Continuous
 62
               7
100
AcDbLine
 10
34.702428372439812
 20
4.4409591302338924
 30
0.0
 11
384.70242837243984
 21
4.4409591302338924
 31
0.0
  0
LINE
  5
1AD
100
AcDbEntity
  8
Layer00003
  6
Continuous
 62
               7
100
AcDbLine
 10
34.702428372439812
 20
12.440959130233892
 30
0.0
 11
384.70242837243984
 21
12.440959130233892
 31
0.0
  0
LINE
  5
1AE
100
AcDbEntity
  8
Layer00003
  6
Continuous
 62
               7
100
AcDbLine
 10
34.702428372439812
 20
12.440959130233892
 30
0.0
 11
34.702428372439812
 21
4.4409591302338924
 31
0.0
  0
LINE
  5
1AF
100
AcDbEntity
  8
Layer00003
  6
Continuous
 62
               7
100
AcDbLine
 10
359.70242837243984
 20
12.440959130233892
 30
0.0
 11
359.70242837243984
 21
4.4409591302338924
 31
0.0
  0
LINE
  5
1B0
100
AcDbEntity
  8
Layer00003
  6
Continuous
 62
               7
100
AcDbLine
 10
104.70242837243981
 20
12.440959130233892
 30
0.0
 11
104.70242837243981
 21
4.4409591302338924
 31
0.0
  0
LINE
  5
1B1
100
AcDbEntity
  8
Layer00003
  6
Continuous
 62
               7
100
AcDbLine
 10
329.70242837243984
 20
12.440959130233892
 30
0.0
 11
329.70242837243984
 21
4.4409591302338924
 31
0.0
  0
LINE
  5
1B2
100
AcDbEntity
  8
Layer00003
  6
Continuous
 62
               7
100
AcDbLine
 10
254.70242837243981
 20
12.440959130233892
 30
0.0
 11
254.70242837243981
 21
4.4409591302338924
 31
0.0
  0
LINE
  5
1B3
100
AcDbEntity
  8
Layer00003
  6
Continuous
 62
               7
100
AcDbLine
 10
179.70242837243981
 20
12.440959130233892
 30
0.0
 11
179.70242837243981
 21
4.4409591302338924
 31
0.0
  0
LINE
  5
1B4
100
AcDbEntity
  8
Layer00003
  6
Continuous
 62
               7
100
AcDbLine
 10
384.70242837243984
 20
12.440959130233892
 30
0.0
 11
384.70242837243984
 21
4.4409591302338924
 31
0.0
  0
LINE
  5
1B5
100
AcDbEntity
  8
Layer00004
  6
Continuous
 62
               3
100
AcDbLine
 10
273.25803994375508
 20
174.4260720317308
 30
0.0
 11
286.2580399437478
 21
174.4260720317308
 31
0.0
  0
LINE
  5
1B6
100
AcDbEntity
  8
Layer00004
  6
Continuous
 62
               3
100
AcDbLine
 10
285.2580399437478
 20
154.42607173428465
 30
0.0
 11
285.2580399437478
 21
174.4260720317308
 31
0.0
  0
LINE
  5
1B7
100
AcDbEntity
  8
Layer00004
  6
Continuous
 62
               3
100
AcDbLine
 10
280.75803994375508
 20
174.4260720317308
 30
0.0
 11
286.2580399437478
 21
174.4260720317308
 31
0.0
  0
LINE
  5
1B8
100
AcDbEntity
  8
Layer00004
  6
Continuous
 62
               3
100
AcDbLine
 10
285.2580399437478
 20
177.42607203173444
 30
0.0
 11
285.2580399437478
 21
174.4260720317308
 31
0.0
  0
LINE
  5
1B9
100
AcDbEntity
  8
Layer00004
  6
Continuous
 62
               3
100
AcDbLine
 10
337.9468101330034
 20
152.10381316235376
 30
0.0
 11
336.17278803379065
 21
155.17650957194078
 31
0.0
  0
LINE
  5
1BA
100
AcDbEntity
  8
Layer00004
  6
Continuous
 62
               3
100
AcDbLine
 10
336.17278803379065
 20
155.17650957194078
 30
0.0
 11
333.85274473455991
 21
155.17650957194078
 31
0.0
  0
LINE
  5
1BB
100
AcDbEntity
  8
Layer00004
  6
Continuous
 62
               3
100
AcDbLine
 10
337.9468101330034
 20
152.10381316235376
 30
0.0
 11
336.01844730394384
 21
154.40194649171067
 31
0.0
  0
LINE
  5
1BC
100
AcDbEntity
  8
Layer00004
  6
Continuous
 62
               3
100
AcDbLine
 10
337.9468101330034
 20
152.10381316235376
 30
0.0
 11
336.9207497030269
 21
154.92289102471173
 31
0.0
  0
LINE
  5
1BD
100
AcDbEntity
  8
Layer00004
  6
Continuous
 62
               3
100
AcDbLine
 10
280.2580399437569
 20
214.42607173428237
 30
0.0
 11
301.35803994375453
 21
214.42607173428237
 31
0.0
  0
LINE
  5
1BE
100
AcDbEntity
  8
Layer00004
  6
Continuous
 62
               3
100
AcDbLine
 10
300.35803994375453
 20
177.4260720317308
 30
0.0
 11
300.35803994375453
 21
214.42607173428237
 31
0.0
  0
LINE
  5
1BF
100
AcDbEntity
  8
Layer00004
  6
Continuous
 62
               3
100
AcDbLine
 10
200.5671171794414
 20
51.19377957232669
 30
0.0
 11
200.5671171794414
 21
29.770031167019766
 31
0.0
  0
LINE
  5
1C0
100
AcDbEntity
  8
Layer00004
  6
Continuous
 62
               3
100
AcDbLine
 10
140.5671171794414
 20
44.19377957232669
 30
0.0
 11
140.5671171794414
 21
29.770031167019766
 31
0.0
  0
LINE
  5
1C1
100
AcDbEntity
  8
Layer00004
  6
Continuous
 62
               3
100
AcDbLine
 10
200.5671171794414
 20
30.770031167019766
 30
0.0
 11
140.5671171794414
 21
30.770031167019766
 31
0.0
  0
LINE
  5
1C2
100
AcDbEntity
  8
Layer00004
  6
Continuous
 62
               3
100
AcDbLine
 10
200.5671171794414
 20
49.19377957232669
 30
0.0
 11
200.5671171794414
 21
23.715922814182846
 31
0.0
  0
LINE
  5
1C3
100
AcDbEntity
  8
Layer00004
  6
Continuous
 62
               3
100
AcDbLine
 10
128.0671171794414
 20
46.19377957232669
 30
0.0
 11
128.0671171794414
 21
23.715922814182846
 31
0.0
  0
LINE
  5
1C4
100
AcDbEntity
  8
Layer00004
  6
Continuous
 62
               3
100
AcDbLine
 10
200.5671171794414
 20
24.715922814182846
 30
0.0
 11
128.0671171794414
 21
24.715922814182846
 31
0.0
  0
LINE
  5
1C5
100
AcDbEntity
  8
Layer00004
  6
Continuous
 62
               3
100
AcDbLine
 10
107.5671171794414
 20
230.19362452865485
 30
0.0
 11
107.5671171794414
 21
236.90426807494319
 31
0.0
  0
LINE
  5
1C6
100
AcDbEntity
  8
Layer00004
  6
Continuous
 62
               3
100
AcDbLine
 10
140.5671171794414
 20
235.90426807494319
 30
0.0
 11
107.5671171794414
 21
235.90426807494319
 31
0.0
  0
LINE
  5
1C7
100
AcDbEntity
  8
Layer00004
  6
Continuous
 62
               3
100
AcDbLine
 10
107.5671171794414
 20
232.19362452865485
 30
0.0
 11
107.5671171794414
 21
236.90426807494319
 31
0.0
  0
LINE
  5
1C8
100
AcDbEntity
  8
Layer00004
  6
Continuous
 62
               3
100
AcDbLine
 10
89.567117179441397
 20
230.19362452865667
 30
0.0
 11
89.567117179441397
 21
236.90426807494319
 31
0.0
  0
LINE
  5
1C9
100
AcDbEntity
  8
Layer00004
  6
Continuous
 62
               3
100
AcDbLine
 10
107.5671171794414
 20
235.90426807494319
 30
0.0
 11
89.567117179441397
 21
235.90426807494319
 31
0.0
  0
LINE
  5
1CA
100
AcDbEntity
  8
Layer00004
  6
Continuous
 62
               3
100
AcDbLine
 10
173.56711717944322
 20
49.193934528657479
 30
0.0
 11
173.56711717944322
 21
35.211110507423342
 31
0.0
  0
LINE
  5
1CB
100
AcDbEntity
  8
Layer00004
  6
Continuous
 62
               3
100
AcDbLine
 10
140.5671171794414
 20
39.193779572326235
 30
0.0
 11
140.5671171794414
 21
35.211110507423342
 31
0.0
  0
LINE
  5
1CC
100
AcDbEntity
  8
Layer00004
  6
Continuous
 62
               3
100
AcDbLine
 10
173.56711717944322
 20
36.211110507423342
 30
0.0
 11
140.5671171794414
 21
36.211110507423342
 31
0.0
  0
LINE
  5
1CD
100
AcDbEntity
  8
Layer00004
  6
Continuous
 62
               3
100
AcDbLine
 10
191.56711717944231
 20
49.193934528659298
 30
0.0
 11
191.56711717944231
 21
35.211110507423342
 31
0.0
  0
LINE
  5
1CE
100
AcDbEntity
  8
Layer00004
  6
Continuous
 62
               3
100
AcDbLine
 10
173.56711717944322
 20
49.193934528657479
 30
0.0
 11
173.56711717944322
 21
35.211110507423342
 31
0.0
  0
LINE
  5
1CF
100
AcDbEntity
  8
Layer00004
  6
Continuous
 62
               3
100
AcDbLine
 10
191.56711717944231
 20
36.211110507423342
 30
0.0
 11
173.56711717944322
 21
36.211110507423342
 31
0.0
  0
LINE
  5
1D0
100
AcDbEntity
  8
Layer00004
  6
DASHDOT
 62
               6
100
AcDbLine
 10
121.65510418770586
 20
259.90776067733907
 30
0.0
 11
164.14563712194317
 21
259.90776067733907
 31
0.0
  0
LINE
  5
1D1
100
AcDbEntity
  8
Layer00004
  6
DASHED
 62
               7
100
AcDbLine
 10
153.0671171794414
 20
138.19377957232669
 30
0.0
 11
153.0671171794414
 21
48.19377957232669
 31
0.0
  0
LINE
  5
1D2
100
AcDbEntity
  8
Layer00004
  6
DASHDOT
 62
               6
100
AcDbLine
 10
137.24864066493532
 20
256.58928416283436
 30
0.0
 11
131.24017718536774
 21
250.5808206832659
 31
0.0
  0
LINE
  5
1D3
100
AcDbEntity
  8
Layer00004
  6
DASHED
 62
               7
100
AcDbLine
 10
132.5671171794414
 20
191.19377957232669
 30
0.0
 11
148.5671171794414
 21
191.19377957232624
 31
0.0
  0
LINE
  5
1D4
100
AcDbEntity
  8
Layer00004
  6
DASHDOT
 62
               6
100
AcDbLine
 10
129.18156810662126
 20
201.1947859996009
 30
0.0
 11
138.9598651539894
 21
201.1947859996009
 31
0.0
  0
LINE
  5
1D5
100
AcDbEntity
  8
Layer00004
  6
Continuous
 62
               7
100
AcDbLine
 10
128.0671171794414
 20
48.19377957232669
 30
0.0
 11
153.0671171794414
 21
48.19377957232669
 31
0.0
  0
LINE
  5
1D6
100
AcDbEntity
  8
Layer00004
  6
Continuous
 62
               7
100
AcDbLine
 10
128.0671171794414
 20
231.19377957232669
 30
0.0
 11
128.0671171794414
 21
141.19377957232669
 31
0.0
  0
LINE
  5
1D7
100
AcDbEntity
  8
Layer00004
  6
Continuous
 62
               7
100
AcDbLine
 10
153.0671171794414
 20
141.19377957232669
 30
0.0
 11
128.0671171794414
 21
141.19377957232669
 31
0.0
  0
LINE
  5
1D8
100
AcDbEntity
  8
Layer00004
  6
Continuous
 62
               7
100
AcDbLine
 10
149.5671171794414
 20
138.19377957232624
 30
0.0
 11
166.69112509263627
 21
138.19377957232624
 31
0.0
  0
LINE
  5
1D9
100
AcDbEntity
  8
Layer00004
  6
Continuous
 62
               7
100
AcDbLine
 10
152.5671171794414
 20
231.19377957232669
 30
0.0
 11
128.0671171794414
 21
231.19377957232669
 31
0.0
  0
LINE
  5
1DA
100
AcDbEntity
  8
Layer00004
  6
Continuous
 62
               7
100
AcDbLine
 10
153.0671171794414
 20
230.69377957232669
 30
0.0
 11
153.0671171794414
 21
141.19377957232669
 31
0.0
  0
LINE
  5
1DB
100
AcDbEntity
  8
Layer00004
  6
Continuous
 62
               7
100
AcDbLine
 10
152.5671171794414
 20
231.19377957232669
 30
0.0
 11
153.0671171794414
 21
230.69377957232669
 31
0.0
  0
LINE
  5
1DC
100
AcDbEntity
  8
Layer00004
  6
Continuous
 62
               7
100
AcDbLine
 10
130.97807385301289
 20
202.13189128254103
 30
0.0
 11
130.97807385312566
 21
200.25768071677626
 31
0.0
  0
LINE
  5
1DD
100
AcDbEntity
  8
Layer00004
  6
Continuous
 62
               7
100
AcDbLine
 10
132.85228441889498
 20
200.2576807166603
 30
0.0
 11
132.85228441889498
 21
202.13189128254467
 31
0.0
  0
LINE
  5
1DE
100
AcDbEntity
  8
Layer00004
  6
Continuous
 62
               7
100
AcDbLine
 10
130.9780738530138
 20
202.13189128254149
 30
0.0
 11
132.85228441889498
 21
202.13189128254149
 31
0.0
  0
LINE
  5
1DF
100
AcDbEntity
  8
Layer00004
  6
Continuous
 62
               7
100
AcDbLine
 10
130.97807385312566
 20
200.25768071677626
 30
0.0
 11
132.85228441889498
 21
200.25768071677626
 31
0.0
  0
LINE
  5
1E0
100
AcDbEntity
  8
Layer00004
  6
Continuous
 62
               7
100
AcDbLine
 10
131.91517913595393
 20
202.91821597982985
 30
0.0
 11
132.85228441889407
 21
202.13189128254012
 31
0.0
  0
LINE
  5
1E1
100
AcDbEntity
  8
Layer00004
  6
Continuous
 62
               7
100
AcDbLine
 10
131.91517913595393
 20
202.91821597982985
 30
0.0
 11
130.97807385301471
 21
202.13189128254103
 31
0.0
  0
LINE
  5
1E2
100
AcDbEntity
  8
Layer00004
  6
Continuous
 62
               7
100
AcDbLine
 10
131.91517913569928
 20
199.47135601915866
 30
0.0
 11
132.85228441889316
 21
200.25768071666121
 31
0.0
  0
LINE
  5
1E3
100
AcDbEntity
  8
Layer00004
  6
Continuous
 62
               7
100
AcDbLine
 10
131.91517913569928
 20
199.47135601915866
 30
0.0
 11
130.97807385312476
 21
200.25768071614189
 31
0.0
  0
LINE
  5
1E4
100
AcDbEntity
  8
Layer00004
  6
Continuous
 62
               7
100
AcDbLine
 10
200.5671171794414
 20
53.19377957232669
 30
0.0
 11
200.5671171794414
 21
133.19377957232669
 31
0.0
  0
LINE
  5
1E5
100
AcDbEntity
  8
Layer00004
  6
Continuous
 62
               7
100
AcDbLine
 10
195.5671171794414
 20
48.19377957232669
 30
0.0
 11
153.0671171794414
 21
48.19377957232669
 31
0.0
  0
LINE
  5
1E6
100
AcDbEntity
  8
Layer00004
  6
Continuous
 62
               7
100
AcDbLine
 10
195.5671171794414
 20
138.19377957232669
 30
0.0
 11
153.0671171794414
 21
138.19377957232669
 31
0.0
  0
LINE
  5
1E7
100
AcDbEntity
  8
Layer00004
  6
Continuous
 62
               7
100
AcDbLine
 10
200.56711717944049
 20
247.40776067734001
 30
0.0
 11
140.56711717943867
 21
247.40776067734456
 31
0.0
  0
LINE
  5
1E8
100
AcDbEntity
  8
Layer00004
  6
Continuous
 62
               7
100
AcDbLine
 10
200.56711717944049
 20
252.40776067734092
 30
0.0
 11
200.56711717944049
 21
247.40776067734001
 31
0.0
  0
LINE
  5
1E9
100
AcDbEntity
  8
Layer00004
  6
DASHDOT
 62
               6
100
AcDbLine
 10
107.5671171794414
 20
259.90776067733907
 30
0.0
 11
107.5671171794414
 21
278.14813297498597
 31
0.0
  0
LINE
  5
1EA
100
AcDbEntity
  8
Layer00004
  6
DASHED
 62
               7
100
AcDbLine
 10
115.06711717944231
 20
145.69377957232669
 30
0.0
 11
115.06711717944231
 21
226.69377957232669
 31
0.0
  0
LINE
  5
1EB
100
AcDbEntity
  8
Layer00004
  6
Continuous
 62
               7
100
AcDbLine
 10
115.06711717944231
 20
272.90776067733316
 30
0.0
 11
115.06711717944231
 21
272.40776067733589
 31
0.0
  0
LINE
  5
1EC
100
AcDbEntity
  8
Layer00004
  6
DASHDOT
 62
               6
100
AcDbLine
 10
90.067117179441397
 20
259.90776067733907
 30
0.0
 11
90.067117179441397
 21
278.14813297498597
 31
0.0
  0
LINE
  5
1ED
100
AcDbEntity
  8
Layer00004
  6
DASHED
 62
               7
100
AcDbLine
 10
82.067117179442306
 20
145.69377957232714
 30
0.0
 11
82.067117179442306
 21
226.69377957232669
 31
0.0
  0
LINE
  5
1EE
100
AcDbEntity
  8
Layer00004
  6
DASHED
 62
               7
100
AcDbLine
 10
84.067117179442306
 20
228.69377957232669
 30
0.0
 11
113.06711717944231
 21
228.69377957232669
 31
0.0
  0
LINE
  5
1EF
100
AcDbEntity
  8
Layer00004
  6
DASHED
 62
               7
100
AcDbLine
 10
84.067117179443215
 20
143.69377957232714
 30
0.0
 11
113.06711717944231
 21
143.69377957232669
 31
0.0
  0
LINE
  5
1F0
100
AcDbEntity
  8
Layer00004
  6
Continuous
 62
               7
100
AcDbLine
 10
82.067117179442306
 20
272.90776067733589
 30
0.0
 11
115.0671171794414
 21
272.90776067733316
 31
0.0
  0
LINE
  5
1F1
100
AcDbEntity
  8
Layer00004
  6
Continuous
 62
               7
100
AcDbLine
 10
82.067117179442306
 20
272.90776067733589
 30
0.0
 11
82.067117179441397
 21
272.40776067733589
 31
0.0
  0
LINE
  5
1F2
100
AcDbEntity
  8
Layer00004
  6
DASHED
 62
               7
100
AcDbLine
 10
166.06711717944231
 20
52.693779572328964
 30
0.0
 11
166.06711717944231
 21
133.69377957232851
 31
0.0
  0
LINE
  5
1F3
100
AcDbEntity
  8
Layer00004
  6
Continuous
 62
               7
100
AcDbLine
 10
166.06711717944049
 20
252.90776067733955
 30
0.0
 11
166.0671171794414
 21
252.40776067734228
 31
0.0
  0
LINE
  5
1F4
100
AcDbEntity
  8
Layer00004
  6
DASHED
 62
               7
100
AcDbLine
 10
198.56711717944322
 20
52.693779572328509
 30
0.0
 11
198.56711717944322
 21
133.69377957232851
 31
0.0
  0
LINE
  5
1F5
100
AcDbEntity
  8
Layer00004
  6
DASHED
 62
               7
100
AcDbLine
 10
196.56711717944322
 20
50.693779572328509
 30
0.0
 11
168.06711717944322
 21
50.693779572328509
 31
0.0
  0
LINE
  5
1F6
100
AcDbEntity
  8
Layer00004
  6
DASHED
 62
               7
100
AcDbLine
 10
196.56711717944322
 20
135.69377957232851
 30
0.0
 11
168.06711717944231
 21
135.69377957232851
 31
0.0
  0
LINE
  5
1F7
100
AcDbEntity
  8
Layer00004
  6
Continuous
 62
               7
100
AcDbLine
 10
198.56711717944049
 20
252.90776067733773
 30
0.0
 11
166.06711717943958
 21
252.90776067733546
 31
0.0
  0
LINE
  5
1F8
100
AcDbEntity
  8
Layer00004
  6
Continuous
 62
               7
100
AcDbLine
 10
198.56711717944049
 20
252.90776067733773
 30
0.0
 11
198.5671171794414
 21
252.40776067733773
 31
0.0
  0
LINE
  5
1F9
100
AcDbEntity
  8
Layer00004
  6
Continuous
 62
               7
100
AcDbLine
 10
80.567117179441397
 20
146.19377957232669
 30
0.0
 11
80.567117179441397
 21
226.19377957232669
 31
0.0
  0
LINE
  5
1FA
100
AcDbEntity
  8
Layer00004
  6
Continuous
 62
               7
100
AcDbLine
 10
85.567117179441397
 20
231.19377957232669
 30
0.0
 11
128.0671171794414
 21
231.19377957232669
 31
0.0
  0
LINE
  5
1FB
100
AcDbEntity
  8
Layer00004
  6
Continuous
 62
               7
100
AcDbLine
 10
85.567117179441397
 20
141.19377957232669
 30
0.0
 11
130.5671171794414
 21
141.19377957232669
 31
0.0
  0
LINE
  5
1FC
100
AcDbEntity
  8
Layer00004
  6
Continuous
 62
               7
100
AcDbLine
 10
80.067117179441397
 20
272.40776067733543
 30
0.0
 11
140.56711717944322
 21
272.40776067733134
 31
0.0
  0
LINE
  5
1FD
100
AcDbEntity
  8
Layer00004
  6
Continuous
 62
               7
100
AcDbLine
 10
80.067117179441397
 20
272.40776067733543
 30
0.0
 11
80.067117179441397
 21
267.40776067733589
 31
0.0
  0
LINE
  5
1FE
100
AcDbEntity
  8
Layer00004
  6
Continuous
 62
               7
100
AcDbLine
 10
120.56711717943139
 20
267.4077606772745
 30
0.0
 11
80.067117179441397
 21
267.40776067733589
 31
0.0
  0
LINE
  5
1FF
100
AcDbEntity
  8
Layer00004
  6
Continuous
 62
               7
100
AcDbLine
 10
160.5671171793941
 20
252.40776067738412
 30
0.0
 11
200.56711717944049
 21
252.40776067734183
 31
0.0
  0
LINE
  5
200
100
AcDbEntity
  8
Layer00004
  6
DASHED
 62
               7
100
AcDbLine
 10
132.5671171794414
 20
141.19377957232669
 30
0.0
 11
132.5671171794414
 21
191.19377957232669
 31
0.0
  0
LINE
  5
201
100
AcDbEntity
  8
Layer00004
  6
DASHED
 62
               7
100
AcDbLine
 10
148.5671171794414
 20
141.19377957232669
 30
0.0
 11
148.5671171794414
 21
191.19377957232624
 31
0.0
  0
LINE
  5
202
100
AcDbEntity
  8
Layer00004
  6
DASHED
 62
               7
100
AcDbLine
 10
137.38513666410321
 20
252.483139474875
 30
0.0
 11
133.14249597698321
 21
256.72578016199134
 31
0.0
  0
LINE
  5
203
100
AcDbEntity
  8
Layer00004
  6
DASHED
 62
               7
100
AcDbLine
 10
151.26893867386329
 20
266.36694148464733
 30
0.0
 11
137.38513666410321
 21
252.483139474875
 31
0.0
  0
LINE
  5
204
100
AcDbEntity
  8
Layer00004
  6
DASHED
 62
               7
100
AcDbLine
 10
147.28463160070837
 20
270.86791578572831
 30
0.0
 11
133.14249597698321
 21
256.72578016199134
 31
0.0
  0
LINE
  5
205
100
AcDbEntity
  8
Layer00004
  6
DASHED
 62
               7
100
AcDbLine
 10
134.03907144915442
 20
253.37971494704212
 30
0.0
 11
137.38513666410321
 21
252.48313947487682
 31
0.0
  0
LINE
  5
206
100
AcDbEntity
  8
Layer00004
  6
DASHED
 62
               7
100
AcDbLine
 10
134.03907144915442
 20
253.37971494704212
 30
0.0
 11
133.14249597698321
 21
256.72578016199134
 31
0.0
  0
LINE
  5
207
100
AcDbEntity
  8
Layer00004
  6
Continuous
 62
               3
100
AcDbLine
 10
285.2580399437478
 20
154.42607173428465
 30
0.0
 11
301.35803994375544
 21
154.42607173428465
 31
0.0
  0
LINE
  5
208
100
AcDbEntity
  8
Layer00004
  6
Continuous
 62
               3
100
AcDbLine
 10
300.35803994375544
 20
154.42607173428465
 30
0.0
 11
300.35803994375544
 21
177.4260720317308
 31
0.0
  0
LINE
  5
209
100
AcDbEntity
  8
Layer00004
  6
Continuous
 62
               3
100
AcDbLine
 10
275.75803994375508
 20
134.9260717342901
 30
0.0
 11
275.75803994375508
 21
132.17972152952385
 31
0.0
  0
LINE
  5
20A
100
AcDbEntity
  8
Layer00004
  6
Continuous
 62
               3
100
AcDbLine
 10
265.75803994375872
 20
134.9260717342901
 30
0.0
 11
265.75803994375872
 21
132.17972152952385
 31
0.0
  0
LINE
  5
20B
100
AcDbEntity
  8
Layer00004
  6
Continuous
 62
               3
100
AcDbLine
 10
275.75803994375508
 20
133.17972152952385
 30
0.0
 11
265.75803994375872
 21
133.17972152952385
 31
0.0
  0
LINE
  5
20C
100
AcDbEntity
  8
Layer00004
  6
Continuous
 62
               3
100
AcDbLine
 10
278.75803994375508
 20
177.42607203173444
 30
0.0
 11
278.75803994375508
 21
127.64720507890448
 31
0.0
  0
LINE
  5
20D
100
AcDbEntity
  8
Layer00004
  6
Continuous
 62
               3
100
AcDbLine
 10
265.75803994375872
 20
139.9260717342892
 30
0.0
 11
265.75803994375872
 21
127.64720507890448
 31
0.0
  0
LINE
  5
20E
100
AcDbEntity
  8
Layer00004
  6
Continuous
 62
               3
100
AcDbLine
 10
278.75803994375508
 20
128.64720507890448
 30
0.0
 11
265.75803994375872
 21
128.64720507890448
 31
0.0
  0
LINE
  5
20F
100
AcDbEntity
  8
Layer00004
  6
Continuous
 62
               3
100
AcDbLine
 10
311.22250930514144
 20
237.42607203173262
 30
0.0
 11
317.81527306085025
 21
248.84507381892004
 31
0.0
  0
LINE
  5
210
100
AcDbEntity
  8
Layer00004
  6
Continuous
 62
               3
100
AcDbLine
 10
317.81527306085025
 20
248.84507381892004
 30
0.0
 11
322.55840388856393
 21
248.84507381892004
 31
0.0
  0
LINE
  5
211
100
AcDbEntity
  8
Layer00004
  6
Continuous
 62
               3
100
AcDbLine
 10
311.22250930514144
 20
237.42607203173262
 30
0.0
 11
312.24856973511794
 21
240.24514989409013
 31
0.0
  0
LINE
  5
212
100
AcDbEntity
  8
Layer00004
  6
Continuous
 62
               3
100
AcDbLine
 10
311.22250930514144
 20
237.42607203173262
 30
0.0
 11
313.15087213420099
 21
239.72420536108953
 31
0.0
  0
LINE
  5
213
100
AcDbEntity
  8
Layer00004
  6
Continuous
 62
               3
100
AcDbLine
 10
335.50831923322164
 20
137.98711225027105
 30
0.0
 11
338.01247134443236
 21
142.32443093676844
 31
0.0
  0
LINE
  5
214
100
AcDbEntity
  8
Layer00004
  6
Continuous
 62
               3
100
AcDbLine
 10
338.01247134443236
 20
142.32443093676844
 30
0.0
 11
339.71961475138903
 21
142.32443093676844
 31
0.0
  0
LINE
  5
215
100
AcDbEntity
  8
Layer00004
  6
Continuous
 62
               3
100
AcDbLine
 10
335.50831923322164
 20
137.98711225027105
 30
0.0
 11
336.53437966319814
 21
140.80619011262857
 31
0.0
  0
LINE
  5
216
100
AcDbEntity
  8
Layer00004
  6
Continuous
 62
               3
100
AcDbLine
 10
335.50831923322164
 20
137.98711225027105
 30
0.0
 11
337.43668206228119
 21
140.28524557962797
 31
0.0
  0
LINE
  5
217
100
AcDbEntity
  8
Layer00004
  6
Continuous
 62
               3
100
AcDbLine
 10
322.17804322173413
 20
88.429072583646899
 30
0.0
 11
315.10343876838795
 21
76.175498226997348
 31
0.0
  0
LINE
  5
218
100
AcDbEntity
  8
Layer00004
  6
Continuous
 62
               3
100
AcDbLine
 10
315.10343876838795
 20
76.175498226997348
 30
0.0
 11
314.83714414149961
 21
76.175498226997348
 31
0.0
  0
LINE
  5
219
100
AcDbEntity
  8
Layer00004
  6
Continuous
 62
               3
100
AcDbLine
 10
322.17804322173413
 20
88.429072583646899
 30
0.0
 11
321.15198279175763
 21
85.609994721289382
 31
0.0
  0
LINE
  5
21A
100
AcDbEntity
  8
Layer00004
  6
Continuous
 62
               3
100
AcDbLine
 10
322.17804322173413
 20
88.429072583646899
 30
0.0
 11
320.24968039267458
 21
86.130939254289984
 31
0.0
  0
LINE
  5
21B
100
AcDbEntity
  8
Layer00004
  6
Continuous
 62
               3
100
AcDbLine
 10
332.94853259310128
 20
112.27843272362375
 30
0.0
 11
337.65330382162153
 21
104.12952991783973
 31
0.0
  0
LINE
  5
21C
100
AcDbEntity
  8
Layer00004
  6
Continuous
 62
               3
100
AcDbLine
 10
337.65330382162153
 20
104.12952991783973
 30
0.0
 11
338.58551979500533
 21
104.12952991783973
 31
0.0
  0
LINE
  5
21D
100
AcDbEntity
  8
Layer00004
  6
Continuous
 62
               3
100
AcDbLine
 10
332.94853259310128
 20
112.27843272362375
 30
0.0
 11
334.87689542216083
 21
109.98029939426684
 31
0.0
  0
LINE
  5
21E
100
AcDbEntity
  8
Layer00004
  6
Continuous
 62
               3
100
AcDbLine
 10
332.94853259310128
 20
112.27843272362375
 30
0.0
 11
333.97459302307959
 21
109.45935486126623
 31
0.0
  0
LINE
  5
21F
100
AcDbEntity
  8
Layer00004
  6
Continuous
 62
               3
100
AcDbLine
 10
290.95803994375945
 20
253.22411436370581
 30
0.0
 11
296.76509543056579
 21
263.28222950922566
 31
0.0
  0
LINE
  5
220
100
AcDbEntity
  8
Layer00004
  6
Continuous
 62
               3
100
AcDbLine
 10
296.76509543056579
 20
263.28222950922566
 30
0.0
 11
299.92955296879461
 21
263.28222950922566
 31
0.0
  0
LINE
  5
221
100
AcDbEntity
  8
Layer00004
  6
Continuous
 62
               3
100
AcDbLine
 10
290.95803994375945
 20
253.22411436370581
 30
0.0
 11
291.98410037373594
 21
256.0431922260633
 31
0.0
  0
LINE
  5
222
100
AcDbEntity
  8
Layer00004
  6
Continuous
 62
               3
100
AcDbLine
 10
290.95803994375945
 20
253.22411436370581
 30
0.0
 11
292.886402772819
 21
255.52224769306272
 31
0.0
  0
LINE
  5
223
100
AcDbEntity
  8
Layer00004
  6
Continuous
 62
               3
100
AcDbLine
 10
278.75803994375508
 20
230.7945434721552
 30
0.0
 11
272.75803994375508
 21
230.7945434721552
 31
0.0
  0
LINE
  5
224
100
AcDbEntity
  8
Layer00004
  6
Continuous
 62
               3
100
AcDbLine
 10
278.25803994375326
 20
221.42607173428237
 30
0.0
 11
278.25803994375326
 21
226.62855264967826
 31
0.0
  0
LINE
  5
225
100
AcDbEntity
  8
Layer00004
  6
Continuous
 62
               3
100
AcDbLine
 10
273.2580399437569
 20
221.42607173428055
 30
0.0
 11
273.2580399437569
 21
226.62855264967826
 31
0.0
  0
LINE
  5
226
100
AcDbEntity
  8
Layer00004
  6
Continuous
 62
               3
100
AcDbLine
 10
278.25803994375326
 20
225.62855264967826
 30
0.0
 11
273.2580399437569
 21
225.62855264967826
 31
0.0
  0
LINE
  5
227
100
AcDbEntity
  8
Layer00004
  6
Continuous
 62
               3
100
AcDbLine
 10
278.25803994375326
 20
221.42607173428237
 30
0.0
 11
278.25803994375326
 21
226.6285526496778
 31
0.0
  0
LINE
  5
228
100
AcDbEntity
  8
Layer00004
  6
Continuous
 62
               3
100
AcDbLine
 10
278.25803994375326
 20
225.6285526496778
 30
0.0
 11
278.75803994375508
 21
225.6285526496778
 31
0.0
  0
LINE
  5
229
100
AcDbEntity
  8
Layer00004
  6
Continuous
 62
               3
100
AcDbLine
 10
287.32256082870788
 20
225.62855264967916
 30
0.0
 11
278.75803994375508
 21
225.6285526496778
 31
0.0
  0
LINE
  5
22A
100
AcDbEntity
  8
Layer00004
  6
Continuous
 62
               3
100
AcDbLine
 10
273.2580399437569
 20
221.42607173428055
 30
0.0
 11
273.2580399437569
 21
226.6285526496778
 31
0.0
  0
LINE
  5
22B
100
AcDbEntity
  8
Layer00004
  6
Continuous
 62
               3
100
AcDbLine
 10
273.2580399437569
 20
225.6285526496778
 30
0.0
 11
272.7580399437569
 21
225.6285526496778
 31
0.0
  0
LINE
  5
22C
100
AcDbEntity
  8
Layer00004
  6
Continuous
 62
               3
100
AcDbLine
 10
265.92685591042334
 20
225.6285526496778
 30
0.0
 11
272.7580399437569
 21
225.6285526496778
 31
0.0
  0
LINE
  5
22D
100
AcDbEntity
  8
Layer00004
  6
DIVIDE
 62
               4
100
AcDbLine
 10
300.35803994375544
 20
181.32607203173362
 30
0.0
 11
300.35803994375544
 21
179.02607203173298
 31
0.0
  0
LINE
  5
22E
100
AcDbEntity
  8
Layer00004
  6
DIVIDE
 62
               4
100
AcDbLine
 10
287.65803994375472
 20
233.52607203173298
 30
0.0
 11
287.65803994375472
 21
181.32607203173407
 31
0.0
  0
LINE
  5
22F
100
AcDbEntity
  8
Layer00004
  6
DIVIDE
 62
               4
100
AcDbLine
 10
265.25803994375599
 20
221.02607203173525
 30
0.0
 11
271.15803971147523
 21
221.02607203173662
 31
0.0
  0
LINE
  5
230
100
AcDbEntity
  8
Layer00004
  6
Continuous
 62
               4
100
AcDbLine
 10
384.00992136877846
 20
166.18454692809897
 30
0.0
 11
357.82787087023223
 21
166.18454692809897
 31
0.0
  0
LINE
  5
231
100
AcDbEntity
  8
Layer00004
  6
Continuous
 62
               4
100
AcDbLine
 10
338.70275959580374
 20
166.18454692809897
 30
0.0
 11
318.65387286688144
 21
166.18454692809897
 31
0.0
  0
LINE
  5
232
100
AcDbEntity
  8
Layer00004
  6
Continuous
 62
               4
100
AcDbLine
 10
318.65387286688144
 20
166.18454692809897
 30
0.0
 11
269.00992136877846
 21
59.722749378975692
 31
0.0
  0
LINE
  5
233
100
AcDbEntity
  8
Layer00004
  6
Continuous
 62
               7
100
AcDbLine
 10
343.73300036673334
 20
47.064092272839986
 30
0.0
 11
335.66635555255868
 21
51.721371827761828
 31
0.0
  0
LINE
  5
234
100
AcDbEntity
  8
Layer00004
  6
DIVIDE
 62
               4
100
AcDbLine
 10
326.28288287378871
 20
132.02508097844898
 30
0.0
 11
326.28288287378871
 21
125.77807978439446
 31
0.0
  0
LINE
  5
235
100
AcDbEntity
  8
Layer00004
  6
Continuous
 62
               7
100
AcDbLine
 10
334.75042051608887
 20
125.46650058211404
 30
0.0
 11
334.75042051608887
 21
92.1769786209085
 31
0.0
  0
LINE
  5
236
100
AcDbEntity
  8
Layer00004
  6
DIVIDE
 62
               4
100
AcDbLine
 10
303.94884694748123
 20
119.48355342183154
 30
0.0
 11
298.43851560136989
 21
122.6649447078336
 31
0.0
  0
LINE
  5
237
100
AcDbEntity
  8
Layer00004
  6
DIVIDE
 62
               4
100
AcDbLine
 10
302.94175192824639
 20
119.12642301304109
 30
0.0
 11
298.03209984332295
 21
121.96101196589839
 31
0.0
  0
LINE
  5
238
100
AcDbEntity
  8
Layer00004
  6
DIVIDE
 62
               4
100
AcDbLine
 10
303.94175192824639
 20
118.85847382060925
 30
0.0
 11
303.94175192824639
 21
62.518955889553723
 31
0.0
  0
LINE
  5
239
100
AcDbEntity
  8
Layer00004
  6
DIVIDE
 62
               4
100
AcDbLine
 10
303.8810906028915
 20
120.67410553236928
 30
0.0
 11
298.93710070135
 21
123.52851943289502
 31
0.0
  0
LINE
  5
23A
100
AcDbEntity
  8
Layer00004
  6
DIVIDE
 62
               4
100
AcDbLine
 10
313.85270288689696
 20
138.82038166355383
 30
0.0
 11
312.92892612438607
 21
138.28703890104785
 31
0.0
  0
LINE
  5
23B
100
AcDbEntity
  8
Layer00004
  6
DIVIDE
 62
               4
100
AcDbLine
 10
322.67317542789658
 20
133.72787946762733
 30
0.0
 11
322.70382738073329
 21
133.74557638084949
 31
0.0
  0
LINE
  5
23C
100
AcDbEntity
  8
Layer00004
  6
Continuous
 62
               7
100
AcDbLine
 10
361.00341990980576
 20
73.84466051093446
 30
0.0
 11
361.00341990980576
 21
44.759410884848108
 31
0.0
  0
LINE
  5
23D
100
AcDbEntity
  8
Layer00004
  6
Continuous
 62
               7
100
AcDbLine
 10
358.8666000840434
 20
44.759410884848108
 30
0.0
 11
358.8666000840434
 21
72.610967009320262
 31
0.0
  0
LINE
  5
23E
100
AcDbEntity
  8
Layer00004
  6
Continuous
 62
               7
100
AcDbLine
 10
359.50341990980576
 20
76.44273672228806
 30
0.0
 11
343.83330495483403
 21
85.489881809773721
 31
0.0
  0
LINE
  5
23F
100
AcDbEntity
  8
Layer00004
  6
Continuous
 62
               7
100
AcDbLine
 10
312.35789029810746
 20
79.699306330793348
 30
0.0
 11
309.84191273628619
 21
81.151906653386646
 31
0.0
  0
LINE
  5
240
100
AcDbEntity
  8
Layer00004
  6
Continuous
 62
               7
100
AcDbLine
 10
317.45736038176199
 20
117.77746135270095
 30
0.0
 11
312.6116053540876
 21
114.97976338304184
 31
0.0
  0
LINE
  5
241
100
AcDbEntity
  8
Layer00004
  6
DIVIDE
 62
               4
100
AcDbLine
 10
313.14583015226106
 20
128.22726410807869
 30
0.0
 11
321.74939866538568
 21
133.19453670512226
 31
0.0
  0
LINE
  5
242
100
AcDbEntity
  8
Layer00004
  6
DIVIDE
 62
               4
100
AcDbLine
 10
307.9927042149551
 20
123.04794675810049
 30
0.0
 11
303.8810906028915
 21
120.67410553236928
 31
0.0
  0
LINE
  5
243
100
AcDbEntity
  8
Layer00004
  6
DIVIDE
 62
               4
100
AcDbLine
 10
320.4131538375799
 20
128.98922543684935
 30
0.0
 11
325.64695940313811
 21
132.01096448901049
 31
0.0
  0
LINE
  5
244
100
AcDbEntity
  8
Layer00004
  6
DIVIDE
 62
               4
100
AcDbLine
 10
308.82935140213283
 20
121.37092961579233
 30
0.0
 11
304.94175192824639
 21
119.12642301304018
 31
0.0
  0
LINE
  5
245
100
AcDbEntity
  8
Layer00004
  6
Continuous
 62
               7
100
AcDbLine
 10
323.20378317498887
 20
121.09516009924496
 30
0.0
 11
317.45736038176199
 21
117.77746135270095
 31
0.0
  0
LINE
  5
246
100
AcDbEntity
  8
Layer00004
  6
Continuous
 62
               7
100
AcDbLine
 10
330.19480424585106
 20
128.03662864160256
 30
0.0
 11
321.14300727891475
 21
122.81057122608959
 31
0.0
  0
LINE
  5
247
100
AcDbEntity
  8
Layer00004
  6
Continuous
 62
               7
100
AcDbLine
 10
311.60789029816931
 20
89.335682301461617
 30
0.0
 11
311.60789029816931
 21
80.998344436576787
 31
0.0
  0
LINE
  5
248
100
AcDbEntity
  8
Layer00004
  6
Continuous
 62
               7
100
AcDbLine
 10
309.09191273634804
 20
88.6036867506497
 30
0.0
 11
309.09191273634804
 21
82.450944759173268
 31
0.0
  0
LINE
  5
249
100
AcDbEntity
  8
Layer00004
  6
DIVIDE
 62
               4
100
AcDbLine
 10
301.97223317219994
 20
121.7761848838251
 30
0.0
 11
313.14583015226106
 21
128.22726410807823
 31
0.0
  0
LINE
  5
24A
100
AcDbEntity
  8
Layer00004
  6
DIVIDE
 62
               4
100
AcDbLine
 10
323.65825609607907
 20
132.09245735366781
 30
0.0
 11
307.99270421495692
 21
123.04794675809958
 31
0.0
  0
LINE
  5
24B
100
AcDbEntity
  8
Layer00004
  6
DIVIDE
 62
               4
100
AcDbLine
 10
303.94884694748123
 20
119.48355342183154
 30
0.0
 11
320.4131538375799
 21
128.9892254368489
 31
0.0
  0
LINE
  5
24C
100
AcDbEntity
  8
Layer00004
  6
DIVIDE
 62
               4
100
AcDbLine
 10
325.78288287378871
 20
131.15905557466445
 30
0.0
 11
308.82935140213465
 21
121.37092961578961
 31
0.0
  0
LINE
  5
24D
100
AcDbEntity
  8
Layer00004
  6
Continuous
 62
               7
100
AcDbLine
 10
310.59191273634804
 20
116.71889395169561
 30
0.0
 11
330.19480424585288
 21
128.03662864159983
 31
0.0
  0
LINE
  5
24E
100
AcDbEntity
  8
Layer00004
  6
Continuous
 62
               7
100
AcDbLine
 10
317.46539751381658
 20
81.78210159295773
 30
0.0
 11
313.85789029816931
 21
79.699306330900214
 31
0.0
  0
LINE
  5
24F
100
AcDbEntity
  8
Layer00004
  6
Continuous
 62
               7
100
AcDbLine
 10
327.14227045952919
 20
87.36904679308023
 30
0.0
 11
317.46539751381658
 21
81.78210159295682
 31
0.0
  0
LINE
  5
250
100
AcDbEntity
  8
Layer00004
  6
Continuous
 62
               7
100
AcDbLine
 10
311.60789029816931
 20
112.66821741774962
 30
0.0
 11
311.60789029816931
 21
80.998344436576787
 31
0.0
  0
LINE
  5
251
100
AcDbEntity
  8
Layer00004
  6
Continuous
 62
               7
100
AcDbLine
 10
309.09191273634804
 20
114.12081774034246
 30
0.0
 11
309.09191273634804
 21
82.450944759173268
 31
0.0
  0
LINE
  5
252
100
AcDbEntity
  8
Layer00004
  6
Continuous
 62
               7
100
AcDbLine
 10
345.50402484185486
 20
107.13363965837121
 30
0.0
 11
345.50402484185486
 21
128.0666577519211
 31
0.0
  0
LINE
  5
253
100
AcDbEntity
  8
Layer00004
  6
Continuous
 62
               7
100
AcDbLine
 10
345.50402484185486
 20
99.052408777408488
 30
0.0
 11
345.50402484185486
 21
90.452733116040832
 31
0.0
  0
LINE
  5
254
100
AcDbEntity
  8
Layer00004
  6
Continuous
 62
               7
100
AcDbLine
 10
342.44469876460187
 20
87.278047978123283
 30
0.0
 11
342.61421876995644
 21
87.704731940846301
 31
0.0
  0
LINE
  5
255
100
AcDbEntity
  8
Layer00004
  6
Continuous
 62
               7
100
AcDbLine
 10
345.46583402450722
 20
84.54734071193721
 30
0.0
 11
345.46583402450722
 21
90.452733116040832
 31
0.0
  0
LINE
  5
256
100
AcDbEntity
  8
Layer00004
  6
Continuous
 62
               7
100
AcDbLine
 10
331.79369401223028
 20
126.0545474334414
 30
0.0
 11
317.45736038176381
 21
117.77746135269913
 31
0.0
  0
LINE
  5
257
100
AcDbEntity
  8
Layer00004
  6
Continuous
 62
               7
100
AcDbLine
 10
333.25410863503873
 20
126.16846293575205
 30
0.0
 11
334.10604009656834
 21
125.94018858862879
 31
0.0
  0
LINE
  5
258
100
AcDbEntity
  8
Layer00004
  6
Continuous
 62
               7
100
AcDbLine
 10
332.21883245463084
 20
126.1684629357525
 30
0.0
 11
331.79369401223028
 21
126.05454743344004
 31
0.0
  0
LINE
  5
259
100
AcDbEntity
  8
Layer00004
  6
Continuous
 62
               7
100
AcDbLine
 10
333.25410863503873
 20
90.168462935752501
 30
0.0
 11
334.10604009656834
 21
89.94018858862924
 31
0.0
  0
LINE
  5
25A
100
AcDbEntity
  8
Layer00004
  6
Continuous
 62
               7
100
AcDbLine
 10
332.21883245463084
 20
90.168462935752956
 30
0.0
 11
331.79369401223028
 21
90.05454743344049
 31
0.0
  0
LINE
  5
25B
100
AcDbEntity
  8
Layer00004
  6
Continuous
 62
               7
100
AcDbLine
 10
319.89582201242172
 20
83.185307831478582
 30
0.0
 11
331.79369401227029
 21
90.054547433370914
 31
0.0
  0
LINE
  5
25C
100
AcDbEntity
  8
Layer00004
  6
Continuous
 62
               7
100
AcDbLine
 10
332.21883245462902
 20
115.64183635005443
 30
0.0
 11
332.21883245462902
 21
126.1684629357525
 31
0.0
  0
LINE
  5
25D
100
AcDbEntity
  8
Layer00004
  6
Continuous
 62
               7
100
AcDbLine
 10
332.21883245462902
 20
109.71131684115986
 30
0.0
 11
332.21883245462902
 21
91.295564471389895
 31
0.0
  0
LINE
  5
25E
100
AcDbEntity
  8
Layer00004
  6
DIVIDE
 62
               4
100
AcDbLine
 10
346.92466980939696
 20
119.15769447544167
 30
0.0
 11
357.35717618821707
 21
125.18090484157588
 31
0.0
  0
LINE
  5
25F
100
AcDbEntity
  8
Layer00004
  6
DIVIDE
 62
               4
100
AcDbLine
 10
346.25402484185486
 20
119.69091693176657
 30
0.0
 11
356.32217099066418
 21
125.503763821023
 31
0.0
  0
LINE
  5
260
100
AcDbEntity
  8
Layer00004
  6
DIVIDE
 62
               4
100
AcDbLine
 10
346.00402484185486
 20
107.13363965837121
 30
0.0
 11
346.00402484185486
 21
119.25790422987453
 31
0.0
  0
LINE
  5
261
100
AcDbEntity
  8
Layer00004
  6
DIVIDE
 62
               4
100
AcDbLine
 10
346.00402484185486
 20
99.052408777408488
 30
0.0
 11
346.00402484185486
 21
84.23661609866727
 31
0.0
  0
LINE
  5
262
100
AcDbEntity
  8
Layer00004
  6
Continuous
 62
               7
100
AcDbLine
 10
345.50402484185486
 20
107.13363965837121
 30
0.0
 11
345.50402484185486
 21
99.052408777408488
 31
0.0
  0
LINE
  5
263
100
AcDbEntity
  8
Layer00004
  6
DIVIDE
 62
               4
100
AcDbLine
 10
357.35717618821707
 20
125.18090484157543
 30
0.0
 11
357.35717618821707
 21
113.13448410930837
 31
0.0
  0
LINE
  5
264
100
AcDbEntity
  8
Layer00004
  6
DIVIDE
 62
               4
100
AcDbLine
 10
365.37070961904408
 20
120.55428915812732
 30
0.0
 11
357.35717618821707
 21
125.18090484157543
 31
0.0
  0
LINE
  5
265
100
AcDbEntity
  8
Layer00004
  6
DIVIDE
 62
               4
100
AcDbLine
 10
365.75176035867605
 20
121.21428839943169
 30
0.0
 11
358.32217099066418
 21
125.50376382102255
 31
0.0
  0
LINE
  5
266
100
AcDbEntity
  8
Layer00004
  6
DIVIDE
 62
               4
100
AcDbLine
 10
315.64462705442691
 20
136.71912823805147
 30
0.0
 11
312.92892612438607
 21
138.28703890104831
 31
0.0
  0
LINE
  5
267
100
AcDbEntity
  8
Layer00004
  6
DIVIDE
 62
               4
100
AcDbLine
 10
321.08528095542658
 20
133.5779652437424
 30
0.0
 11
323.65825609607907
 21
132.09245735366781
 31
0.0
  0
LINE
  5
268
100
AcDbEntity
  8
Layer00004
  6
DIVIDE
 62
               4
100
AcDbLine
 10
321.54716933668112
 20
134.3779793875016
 30
0.0
 11
325.64695940313811
 21
132.01096448901049
 31
0.0
  0
LINE
  5
269
100
AcDbEntity
  8
Layer00004
  6
DIVIDE
 62
               4
100
AcDbLine
 10
316.10651543568144
 20
137.51914238180976
 30
0.0
 11
309.31306963338227
 21
141.44134014449278
 31
0.0
  0
LINE
  5
26A
100
AcDbEntity
  8
Layer00004
  6
DIVIDE
 62
               4
100
AcDbLine
 10
321.96226282357691
 20
135.09694239669639
 30
0.0
 11
325.78288287378871
 21
132.89110638223352
 31
0.0
  0
LINE
  5
26B
100
AcDbEntity
  8
Layer00004
  6
DIVIDE
 62
               4
100
AcDbLine
 10
316.52160892257723
 20
138.23810539100455
 30
0.0
 11
309.72816312027805
 21
142.16030315368712
 31
0.0
  0
LINE
  5
26C
100
AcDbEntity
  8
Layer00004
  6
DIVIDE
 62
               4
100
AcDbLine
 10
312.92892612438607
 20
135.54594458841362
 30
0.0
 11
312.92892612438607
 21
138.28703890104785
 31
0.0
  0
LINE
  5
26D
100
AcDbEntity
  8
Layer00004
  6
DIVIDE
 62
               4
100
AcDbLine
 10
312.92892612438607
 20
129.32398240652961
 30
0.0
 11
312.92892612438607
 21
128.06369673817031
 31
0.0
  0
LINE
  5
26E
100
AcDbEntity
  8
Layer00004
  6
Continuous
 62
               7
100
AcDbLine
 10
333.00402484185486
 20
89.466500582110399
 30
0.0
 11
333.00402484185486
 21
65.55705988413925
 31
0.0
  0
LINE
  5
26F
100
AcDbEntity
  8
Layer00004
  6
DASHDOT
 62
               6
100
AcDbLine
 10
312.33087468667816
 20
68.107189869011705
 30
0.0
 11
316.84031613039167
 21
60.296608174740555
 31
0.0
  0
LINE
  5
270
100
AcDbEntity
  8
Layer00004
  6
DASHDOT
 62
               6
100
AcDbLine
 10
312.3308746867109
 20
68.107189868922575
 30
0.0
 11
321.06460875584105
 21
71.286009104084457
 31
0.0
  0
LINE
  5
271
100
AcDbEntity
  8
Layer00004
  6
DASHDOT
 62
               6
100
AcDbLine
 10
319.70386838150387
 20
67.746074052172986
 30
0.0
 11
321.06460875584105
 21
71.286009104084457
 31
0.0
  0
LINE
  5
272
100
AcDbEntity
  8
Layer00004
  6
DASHDOT
 62
               6
100
AcDbLine
 10
318.14416116256268
 20
63.68853129150844
 30
0.0
 11
316.84031613039167
 21
60.296608174740555
 31
0.0
  0
LINE
  5
273
100
AcDbEntity
  8
Layer00004
  6
Continuous
 62
               7
100
AcDbLine
 10
334.07845250911612
 20
130.27885401183872
 30
0.0
 11
330.19480424585106
 21
128.03662864160256
 31
0.0
  0
LINE
  5
274
100
AcDbEntity
  8
Layer00004
  6
Continuous
 62
               7
100
AcDbLine
 10
358.89172939466459
 20
74.329799438413062
 30
0.0
 11
360.46868296269656
 21
75.240254005415551
 31
0.0
  0
LINE
  5
275
100
AcDbEntity
  8
Layer00004
  6
Continuous
 62
               7
100
AcDbLine
 10
357.3666000840434
 20
75.209043220673863
 30
0.0
 11
334.75042051622529
 21
88.266500582195619
 31
0.0
  0
LINE
  5
276
100
AcDbEntity
  8
Layer00004
  6
Continuous
 62
               7
100
AcDbLine
 10
309.49383652499398
 20
115.62081774034246
 30
0.0
 11
311.60789029816931
 21
114.40026822531868
 31
0.0
  0
LINE
  5
277
100
AcDbEntity
  8
Layer00004
  6
DASHDOT
 62
               6
100
AcDbLine
 10
265.75803994375872
 20
154.42607173428055
 30
0.0
 11
255.35348592893874
 21
164.8306257490996
 31
0.0
  0
LINE
  5
278
100
AcDbEntity
  8
Layer00004
  6
DASHDOT
 62
               6
100
AcDbLine
 10
275.75803994375508
 20
136.9260717342901
 30
0.0
 11
275.75803994375508
 21
223.93864532881767
 31
0.0
  0
LINE
  5
279
100
AcDbEntity
  8
Layer00004
  6
Continuous
 62
               7
100
AcDbLine
 10
333.00402484185486
 20
59.342863864424686
 30
0.0
 11
333.00402484185486
 21
54.866657751920826
 31
0.0
  0
LINE
  5
27A
100
AcDbEntity
  8
Layer00004
  6
Continuous
 62
               7
100
AcDbLine
 10
278.2580399437569
 20
214.42607173428237
 30
0.0
 11
278.25803994375144
 21
154.42607173428055
 31
0.0
  0
LINE
  5
27B
100
AcDbEntity
  8
Layer00004
  6
Continuous
 62
               7
100
AcDbLine
 10
273.25803994375781
 20
214.42607173428055
 30
0.0
 11
278.2580399437569
 21
214.42607173428237
 31
0.0
  0
LINE
  5
27C
100
AcDbEntity
  8
Layer00004
  6
DIVIDE
 62
               4
100
AcDbLine
 10
278.75803994375508
 20
179.42607203173444
 30
0.0
 11
278.75803994375508
 21
219.42607173428237
 31
0.0
  0
LINE
  5
27D
100
AcDbEntity
  8
Layer00004
  6
Continuous
 62
               7
100
AcDbLine
 10
273.25803994376236
 20
174.91997326620609
 30
0.0
 11
273.25803994375781
 21
214.42607173428055
 31
0.0
  0
LINE
  5
27E
100
AcDbEntity
  8
Layer00004
  6
Continuous
 62
               7
100
AcDbLine
 10
272.7580399437569
 20
179.92607173427965
 30
0.0
 11
273.2580399437569
 21
179.92607173427965
 31
0.0
  0
LINE
  5
27F
100
AcDbEntity
  8
Layer00004
  6
Continuous
 62
               7
100
AcDbLine
 10
278.75803994375508
 20
179.9260717342801
 30
0.0
 11
278.25803994375144
 21
179.92607173427965
 31
0.0
  0
LINE
  5
280
100
AcDbEntity
  8
Layer00004
  6
Continuous
 62
               7
100
AcDbLine
 10
278.75803994375508
 20
212.92607173428237
 30
0.0
 11
278.75803994375508
 21
179.9260717342801
 31
0.0
  0
LINE
  5
281
100
AcDbEntity
  8
Layer00004
  6
Continuous
 62
               7
100
AcDbLine
 10
278.75803994375508
 20
212.92607173428237
 30
0.0
 11
278.25803994375326
 21
212.92607173428192
 31
0.0
  0
LINE
  5
282
100
AcDbEntity
  8
Layer00004
  6
Continuous
 62
               7
100
AcDbLine
 10
272.7580399437569
 20
212.92607173427874
 30
0.0
 11
272.7580399437569
 21
179.92607173427965
 31
0.0
  0
LINE
  5
283
100
AcDbEntity
  8
Layer00004
  6
Continuous
 62
               7
100
AcDbLine
 10
272.7580399437569
 20
212.92607173427965
 30
0.0
 11
273.2580399437569
 21
212.92607173427919
 31
0.0
  0
LINE
  5
284
100
AcDbEntity
  8
Layer00004
  6
Continuous
 62
               3
100
AcDbLine
 10
153.0671171794414
 20
46.19377957232669
 30
0.0
 11
153.0671171794414
 21
40.19377957232669
 31
0.0
  0
LINE
  5
285
100
AcDbEntity
  8
Layer00004
  6
Continuous
 62
               3
100
AcDbLine
 10
128.0671171794414
 20
46.19377957232669
 30
0.0
 11
128.0671171794414
 21
40.19377957232669
 31
0.0
  0
LINE
  5
286
100
AcDbEntity
  8
Layer00004
  6
Continuous
 62
               3
100
AcDbLine
 10
153.0671171794414
 20
41.19377957232669
 30
0.0
 11
128.0671171794414
 21
41.19377957232669
 31
0.0
  0
LINE
  5
287
100
AcDbEntity
  8
Layer00004
  6
Continuous
 62
               3
100
AcDbLine
 10
140.5671171794414
 20
232.69377957232305
 30
0.0
 11
141.5931776094188
 21
235.51285743468057
 31
0.0
  0
LINE
  5
288
100
AcDbEntity
  8
Layer00004
  6
Continuous
 62
               3
100
AcDbLine
 10
140.5671171794414
 20
232.69377957232305
 30
0.0
 11
142.49548000850095
 21
234.99191290167997
 31
0.0
  0
LINE
  5
289
100
AcDbEntity
  8
Layer00004
  6
Continuous
 62
               3
100
AcDbLine
 10
152.5671171794414
 20
231.19377957232669
 30
0.0
 11
221.47698518084266
 21
231.19377957232669
 31
0.0
  0
LINE
  5
28A
100
AcDbEntity
  8
Layer00004
  6
Continuous
 62
               3
100
AcDbLine
 10
222.97698518084175
 20
231.19377957232669
 30
0.0
 11
231.09507240548768
 21
231.19377957232669
 31
0.0
  0
LINE
  5
28B
100
AcDbEntity
  8
Layer00004
  6
Continuous
 62
               3
100
AcDbLine
 10
71.551160486894645
 20
259.90776067733907
 30
0.0
 11
119.65510418770586
 21
259.90776067733907
 31
0.0
  0
LINE
  5
28C
100
AcDbEntity
  8
Layer00004
  6
Continuous
 62
               3
100
AcDbLine
 10
204.5671171794414
 20
48.19377957232669
 30
0.0
 11
218.97698518084266
 21
48.19377957232669
 31
0.0
  0
LINE
  5
28D
100
AcDbEntity
  8
Layer00004
  6
Continuous
 62
               3
100
AcDbLine
 10
217.97698518084266
 20
138.19377957232669
 30
0.0
 11
217.97698518084266
 21
48.19377957232669
 31
0.0
  0
LINE
  5
28E
100
AcDbEntity
  8
Layer00004
  6
Continuous
 62
               3
100
AcDbLine
 10
150.0671171794414
 20
141.19377957232669
 30
0.0
 11
218.97698518084266
 21
141.19377957232669
 31
0.0
  0
LINE
  5
28F
100
AcDbEntity
  8
Layer00004
  6
Continuous
 62
               3
100
AcDbLine
 10
217.97698518084266
 20
141.19377957232669
 30
0.0
 11
217.97698518084266
 21
138.19377957232669
 31
0.0
  0
LINE
  5
290
100
AcDbEntity
  8
Layer00004
  6
Continuous
 62
               3
100
AcDbLine
 10
152.0671171794414
 20
141.19377957232669
 30
0.0
 11
218.97698518084266
 21
141.19377957232669
 31
0.0
  0
LINE
  5
291
100
AcDbEntity
  8
Layer00004
  6
Continuous
 62
               3
100
AcDbLine
 10
217.97698518084266
 20
231.19377957232669
 30
0.0
 11
217.97698518084266
 21
141.19377957232669
 31
0.0
  0
LINE
  5
292
100
AcDbEntity
  8
Layer00004
  6
Continuous
 62
               3
100
AcDbLine
 10
212.61053917522744
 20
48.19377957232669
 30
0.0
 11
228.59507240548768
 21
48.19377957232669
 31
0.0
  0
LINE
  5
293
100
AcDbEntity
  8
Layer00004
  6
Continuous
 62
               3
100
AcDbLine
 10
227.59507240548768
 20
231.19377957232669
 30
0.0
 11
227.59507240548768
 21
48.19377957232669
 31
0.0
  0
LINE
  5
294
100
AcDbEntity
  8
Layer00004
  6
Continuous
 62
               3
100
AcDbLine
 10
199.56711717944049
 20
128.19377957232669
 30
0.0
 11
210.3894556821127
 21
128.19377957232669
 31
0.0
  0
LINE
  5
295
100
AcDbEntity
  8
Layer00004
  6
Continuous
 62
               3
100
AcDbLine
 10
209.3894556821127
 20
138.19377957232669
 30
0.0
 11
209.3894556821127
 21
128.19377957232669
 31
0.0
  0
LINE
  5
296
100
AcDbEntity
  8
Layer00004
  6
Continuous
 62
               3
100
AcDbLine
 10
199.56711717944049
 20
128.19377957232669
 30
0.0
 11
210.3894556821127
 21
128.19377957232669
 31
0.0
  0
LINE
  5
297
100
AcDbEntity
  8
Layer00004
  6
Continuous
 62
               3
100
AcDbLine
 10
199.56711717944049
 20
93.19377957232669
 30
0.0
 11
210.3894556821127
 21
93.19377957232669
 31
0.0
  0
LINE
  5
298
100
AcDbEntity
  8
Layer00004
  6
Continuous
 62
               3
100
AcDbLine
 10
209.3894556821127
 20
128.19377957232669
 30
0.0
 11
209.3894556821127
 21
93.19377957232669
 31
0.0
  0
LINE
  5
299
100
AcDbEntity
  8
Layer00004
  6
Continuous
 62
               3
100
AcDbLine
 10
199.56711717944049
 20
93.19377957232669
 30
0.0
 11
210.3894556821127
 21
93.19377957232669
 31
0.0
  0
LINE
  5
29A
100
AcDbEntity
  8
Layer00004
  6
Continuous
 62
               3
100
AcDbLine
 10
199.56711717944049
 20
58.19377957232669
 30
0.0
 11
210.3894556821127
 21
58.19377957232669
 31
0.0
  0
LINE
  5
29B
100
AcDbEntity
  8
Layer00004
  6
Continuous
 62
               3
100
AcDbLine
 10
209.3894556821127
 20
93.19377957232669
 30
0.0
 11
209.3894556821127
 21
58.19377957232669
 31
0.0
  0
LINE
  5
29C
100
AcDbEntity
  8
Layer00004
  6
Continuous
 62
               3
100
AcDbLine
 10
199.56711717944049
 20
58.19377957232669
 30
0.0
 11
210.3894556821127
 21
58.19377957232669
 31
0.0
  0
LINE
  5
29D
100
AcDbEntity
  8
Layer00004
  6
Continuous
 62
               3
100
AcDbLine
 10
206.5671171794414
 20
48.19377957232669
 30
0.0
 11
210.3894556821127
 21
48.19377957232669
 31
0.0
  0
LINE
  5
29E
100
AcDbEntity
  8
Layer00004
  6
Continuous
 62
               3
100
AcDbLine
 10
202.56711717944049
 20
247.40776067734001
 30
0.0
 11
218.97698518084266
 21
247.40776067734001
 31
0.0
  0
LINE
  5
29F
100
AcDbEntity
  8
Layer00004
  6
Continuous
 62
               3
100
AcDbLine
 10
217.97698518084266
 20
259.90776067733907
 30
0.0
 11
217.97698518084266
 21
247.40776067734001
 31
0.0
  0
LINE
  5
2A0
100
AcDbEntity
  8
Layer00004
  6
Continuous
 62
               3
100
AcDbLine
 10
202.5671171794414
 20
252.40776067733773
 30
0.0
 11
209.8894556821127
 21
252.40776067733773
 31
0.0
  0
LINE
  5
2A1
100
AcDbEntity
  8
Layer00004
  6
Continuous
 62
               3
100
AcDbLine
 10
202.56711717944049
 20
247.40776067734001
 30
0.0
 11
209.8894556821127
 21
247.40776067734001
 31
0.0
  0
LINE
  5
2A2
100
AcDbEntity
  8
Layer00004
  6
Continuous
 62
               3
100
AcDbLine
 10
208.8894556821127
 20
252.40776067733773
 30
0.0
 11
208.8894556821127
 21
247.40776067734001
 31
0.0
  0
LINE
  5
2A3
100
AcDbEntity
  8
Layer00004
  6
Continuous
 62
               3
100
AcDbLine
 10
202.56711717944049
 20
252.90776067733773
 30
0.0
 11
209.88945568211361
 21
252.90776067733773
 31
0.0
  0
LINE
  5
2A4
100
AcDbEntity
  8
Layer00004
  6
Continuous
 62
               3
100
AcDbLine
 10
202.5671171794414
 20
252.40776067733773
 30
0.0
 11
209.88945568211361
 21
252.40776067733773
 31
0.0
  0
LINE
  5
2A5
100
AcDbEntity
  8
Layer00004
  6
Continuous
 62
               3
100
AcDbLine
 10
208.88945568211361
 20
252.90776067733773
 30
0.0
 11
208.88945568211361
 21
252.40776067733773
 31
0.0
  0
LINE
  5
2A6
100
AcDbEntity
  8
Layer00004
  6
Continuous
 62
               3
100
AcDbLine
 10
208.88945568211543
 20
258.13143811897646
 30
0.0
 11
208.88945568211361
 21
252.90776067733773
 31
0.0
  0
LINE
  5
2A7
100
AcDbEntity
  8
Layer00004
  6
Continuous
 62
               3
100
AcDbLine
 10
200.5671171794414
 20
252.40776067733773
 30
0.0
 11
208.47406488035844
 21
238.71252552656065
 31
0.0
  0
LINE
  5
2A8
100
AcDbEntity
  8
Layer00004
  6
Continuous
 62
               3
100
AcDbLine
 10
208.47406488035844
 20
238.71252552656065
 30
0.0
 11
211.89252963339399
 21
238.71252552656065
 31
0.0
  0
LINE
  5
2A9
100
AcDbEntity
  8
Layer00004
  6
Continuous
 62
               3
100
AcDbLine
 10
200.5671171794414
 20
252.40776067733773
 30
0.0
 11
202.49548000850095
 21
250.10962734798082
 31
0.0
  0
LINE
  5
2AA
100
AcDbEntity
  8
Layer00004
  6
Continuous
 62
               3
100
AcDbLine
 10
200.5671171794414
 20
252.40776067733773
 30
0.0
 11
201.5931776094188
 21
249.58868281498022
 31
0.0
  0
LINE
  5
2AB
100
AcDbEntity
  8
Layer00004
  6
Continuous
 62
               3
100
AcDbLine
 10
199.5671171794414
 20
138.19377957232669
 30
0.0
 11
218.97698518084266
 21
138.19377957232669
 31
0.0
  0
LINE
  5
2AC
100
AcDbEntity
  8
Layer00004
  6
Continuous
 62
               3
100
AcDbLine
 10
78.067117179441397
 20
272.90776067733589
 30
0.0
 11
76.488458773418955
 21
272.90776067733589
 31
0.0
  0
LINE
  5
2AD
100
AcDbEntity
  8
Layer00004
  6
Continuous
 62
               3
100
AcDbLine
 10
78.067117179442306
 20
272.40776067733589
 30
0.0
 11
76.488458773418955
 21
272.40776067733589
 31
0.0
  0
LINE
  5
2AE
100
AcDbEntity
  8
Layer00004
  6
Continuous
 62
               3
100
AcDbLine
 10
77.488458773418955
 20
272.90776067733589
 30
0.0
 11
77.488458773418955
 21
272.40776067733589
 31
0.0
  0
LINE
  5
2AF
100
AcDbEntity
  8
Layer00004
  6
Continuous
 62
               3
100
AcDbLine
 10
77.488458773418955
 20
278.83248570629496
 30
0.0
 11
77.488458773418955
 21
272.90776067733589
 31
0.0
  0
LINE
  5
2B0
100
AcDbEntity
  8
Layer00004
  6
Continuous
 62
               3
100
AcDbLine
 10
78.067117179441397
 20
272.90776067733589
 30
0.0
 11
70.551160486894645
 21
272.90776067733589
 31
0.0
  0
LINE
  5
2B1
100
AcDbEntity
  8
Layer00004
  6
Continuous
 62
               3
100
AcDbLine
 10
71.551160486894645
 20
259.90776067733907
 30
0.0
 11
71.551160486894645
 21
272.90776067733589
 31
0.0
  0
LINE
  5
2B2
100
AcDbEntity
  8
Layer00004
  6
Continuous
 62
               3
100
AcDbLine
 10
78.067117179442306
 20
272.40776067733498
 30
0.0
 11
76.488458773418955
 21
272.40776067733452
 31
0.0
  0
LINE
  5
2B3
100
AcDbEntity
  8
Layer00004
  6
Continuous
 62
               3
100
AcDbLine
 10
78.067117179441397
 20
267.40776067733498
 30
0.0
 11
76.488458773420774
 21
267.40776067733452
 31
0.0
  0
LINE
  5
2B4
100
AcDbEntity
  8
Layer00004
  6
Continuous
 62
               3
100
AcDbLine
 10
77.488458773418955
 20
272.40776067733498
 30
0.0
 11
77.488458773420774
 21
267.40776067733498
 31
0.0
  0
LINE
  5
2B5
100
AcDbEntity
  8
Layer00004
  6
Continuous
 62
               3
100
AcDbLine
 10
81.067117179443215
 20
221.19377957232851
 30
0.0
 11
71.722234374906606
 21
221.19377957232851
 31
0.0
  0
LINE
  5
2B6
100
AcDbEntity
  8
Layer00004
  6
Continuous
 62
               3
100
AcDbLine
 10
81.067117179444125
 20
186.19377957232851
 30
0.0
 11
71.722234374906606
 21
186.19377957232851
 31
0.0
  0
LINE
  5
2B7
100
AcDbEntity
  8
Layer00004
  6
Continuous
 62
               3
100
AcDbLine
 10
72.722234374906606
 20
221.19377957232851
 30
0.0
 11
72.722234374906606
 21
186.19377957232851
 31
0.0
  0
LINE
  5
2B8
100
AcDbEntity
  8
Layer00004
  6
Continuous
 62
               3
100
AcDbLine
 10
81.067117179444125
 20
186.19377957232851
 30
0.0
 11
71.722234374906606
 21
186.19377957232851
 31
0.0
  0
LINE
  5
2B9
100
AcDbEntity
  8
Layer00004
  6
Continuous
 62
               3
100
AcDbLine
 10
81.067117179444125
 20
151.19377957232805
 30
0.0
 11
71.722234374906606
 21
151.19377957232805
 31
0.0
  0
LINE
  5
2BA
100
AcDbEntity
  8
Layer00004
  6
Continuous
 62
               3
100
AcDbLine
 10
72.722234374906606
 20
186.19377957232851
 30
0.0
 11
72.722234374906606
 21
151.19377957232805
 31
0.0
  0
LINE
  5
2BB
100
AcDbEntity
  8
Layer00004
  6
Continuous
 62
               3
100
AcDbLine
 10
81.067117179444125
 20
151.19377957232805
 30
0.0
 11
71.722234374906606
 21
151.19377957232805
 31
0.0
  0
LINE
  5
2BC
100
AcDbEntity
  8
Layer00004
  6
Continuous
 62
               3
100
AcDbLine
 10
83.067117179441397
 20
141.19377957232669
 30
0.0
 11
71.722234374906606
 21
141.19377957232669
 31
0.0
  0
LINE
  5
2BD
100
AcDbEntity
  8
Layer00004
  6
Continuous
 62
               3
100
AcDbLine
 10
72.722234374906606
 20
151.19377957232805
 30
0.0
 11
72.722234374906606
 21
141.19377957232669
 31
0.0
  0
LINE
  5
2BE
100
AcDbEntity
  8
Layer00004
  6
Continuous
 62
               3
100
AcDbLine
 10
78.067117179441397
 20
221.19377957232851
 30
0.0
 11
71.722234374906606
 21
221.19377957232851
 31
0.0
  0
LINE
  5
2BF
100
AcDbEntity
  8
Layer00004
  6
Continuous
 62
               3
100
AcDbLine
 10
140.56711717944231
 20
232.69377957232351
 30
0.0
 11
146.44409589309757
 21
242.87300529937707
 31
0.0
  0
LINE
  5
2C0
100
AcDbEntity
  8
Layer00004
  6
Continuous
 62
               3
100
AcDbLine
 10
146.44409589309757
 20
242.87300529937707
 30
0.0
 11
161.60535643326907
 21
242.87300529937707
 31
0.0
  0
LINE
  5
2C1
100
AcDbEntity
  8
Layer00004
  6
Continuous
 62
               3
100
AcDbLine
 10
140.56711717944231
 20
232.69377957232351
 30
0.0
 11
141.5931776094188
 21
235.51285743468102
 31
0.0
  0
LINE
  5
2C2
100
AcDbEntity
  8
Layer00004
  6
Continuous
 62
               3
100
AcDbLine
 10
140.56711717944231
 20
232.69377957232351
 30
0.0
 11
142.49548000850186
 21
234.99191290168042
 31
0.0
  0
LINE
  5
2C3
100
AcDbEntity
  8
Layer00004
  6
Continuous
 62
               3
100
AcDbLine
 10
135.06711717944231
 20
201.19478599960135
 30
0.0
 11
148.49776846697236
 21
224.45735640834496
 31
0.0
  0
LINE
  5
2C4
100
AcDbEntity
  8
Layer00004
  6
Continuous
 62
               3
100
AcDbLine
 10
148.49776846697236
 20
224.45735640834496
 30
0.0
 11
158.43206080217655
 21
224.45735640834496
 31
0.0
  0
LINE
  5
2C5
100
AcDbEntity
  8
Layer00004
  6
Continuous
 62
               3
100
AcDbLine
 10
141.16481748011878
 20
191.89002406674277
 30
0.0
 11
148.73639792074059
 21
205.00438608349546
 31
0.0
  0
LINE
  5
2C6
100
AcDbEntity
  8
Layer00004
  6
Continuous
 62
               3
100
AcDbLine
 10
148.73639792074059
 20
205.00438608349546
 30
0.0
 11
156.90205190022184
 21
205.00438608349546
 31
0.0
  0
LINE
  5
2C7
100
AcDbEntity
  8
Layer00004
  6
Continuous
 62
               3
100
AcDbLine
 10
105.56711717944231
 20
221.1937795723276
 30
0.0
 11
118.41955444814025
 21
243.45485392280503
 31
0.0
  0
LINE
  5
2C8
100
AcDbEntity
  8
Layer00004
  6
Continuous
 62
               3
100
AcDbLine
 10
118.41955444814025
 20
243.45485392280503
 30
0.0
 11
114.97261554555402
 21
243.45485392280503
 31
0.0
  0
LINE
  5
2C9
100
AcDbEntity
  8
Layer00004
  6
Continuous
 62
               3
100
AcDbLine
 10
148.56711717944231
 20
141.19377957232714
 30
0.0
 11
156.50020530685683
 21
154.93429126993138
 31
0.0
  0
LINE
  5
2CA
100
AcDbEntity
  8
Layer00004
  6
Continuous
 62
               3
100
AcDbLine
 10
156.50020530685683
 20
154.93429126993138
 30
0.0
 11
158.93479547663114
 21
154.93429126993138
 31
0.0
  0
LINE
  5
2CB
100
AcDbEntity
  8
Layer00004
  6
Continuous
 62
               3
100
AcDbLine
 10
218.97698518084266
 20
259.90776067733907
 30
0.0
 11
163.64563712194317
 21
259.90776067733907
 31
0.0
  0
LINE
  5
2CC
100
AcDbEntity
  8
Layer00004
  6
DASHED
 62
               7
100
AcDbLine
 10
273.18266114621872
 20
151.24409121893078
 30
0.0
 11
268.94002045909872
 21
147.0014505318151
 31
0.0
  0
LINE
  5
2CD
100
AcDbEntity
  8
Layer00004
  6
DASHED
 62
               7
100
AcDbLine
 10
259.29885913646046
 20
165.12789322870495
 30
0.0
 11
273.18266114621872
 21
151.24409121893078
 31
0.0
  0
LINE
  5
2CE
100
AcDbEntity
  8
Layer00004
  6
DASHED
 62
               7
100
AcDbLine
 10
254.79788483537536
 20
161.14358615555389
 30
0.0
 11
268.94002045909872
 21
147.0014505318151
 31
0.0
  0
LINE
  5
2CF
100
AcDbEntity
  8
Layer00004
  6
DASHED
 62
               7
100
AcDbLine
 10
272.28608567404842
 20
147.89802600398312
 30
0.0
 11
273.18266114621781
 21
151.24409121893078
 31
0.0
  0
LINE
  5
2D0
100
AcDbEntity
  8
Layer00004
  6
DASHED
 62
               7
100
AcDbLine
 10
272.28608567404842
 20
147.89802600398312
 30
0.0
 11
268.94002045909781
 21
147.00145053181578
 31
0.0
  0
LINE
  5
2D1
100
AcDbEntity
  8
Layer00004
  6
Continuous
 62
               7
100
AcDbLine
 10
147.5671171794414
 20
140.19377957232669
 30
0.0
 11
147.5671171794414
 21
138.19377957232669
 31
0.0
  0
LINE
  5
2D2
100
AcDbEntity
  8
Layer00004
  6
Continuous
 62
               7
100
AcDbLine
 10
128.0671171794414
 20
138.19377957232669
 30
0.0
 11
153.0671171794414
 21
138.19377957232669
 31
0.0
  0
LINE
  5
2D3
100
AcDbEntity
  8
Layer00004
  6
Continuous
 62
               7
100
AcDbLine
 10
128.0671171794414
 20
138.19377957232669
 30
0.0
 11
128.0671171794414
 21
48.19377957232669
 31
0.0
  0
CIRCLE
  5
2D4
100
AcDbEntity
  8
Layer00004
  6
Continuous
 62
               3
100
AcDbCircle
 10
285.2580399437478
 20
154.42607173428465
 30
0.0
 40
0.5
  0
CIRCLE
  5
2D5
100
AcDbEntity
  8
Layer00004
  6
Continuous
 62
               3
100
AcDbCircle
 10
285.2580399437478
 20
174.4260720317308
 30
0.0
 40
0.5
  0
CIRCLE
  5
2D6
100
AcDbEntity
  8
Layer00004
  6
Continuous
 62
               3
100
AcDbCircle
 10
285.2580399437478
 20
177.42607203173444
 30
0.0
 40
0.5
  0
CIRCLE
  5
2D7
100
AcDbEntity
  8
Layer00004
  6
Continuous
 62
               3
100
AcDbCircle
 10
285.2580399437478
 20
174.4260720317308
 30
0.0
 40
0.5
  0
CIRCLE
  5
2D8
100
AcDbEntity
  8
Layer00004
  6
Continuous
 62
               3
100
AcDbCircle
 10
300.35803994375453
 20
177.4260720317308
 30
0.0
 40
0.5
  0
CIRCLE
  5
2D9
100
AcDbEntity
  8
Layer00004
  6
Continuous
 62
               3
100
AcDbCircle
 10
300.35803994375453
 20
214.42607173428237
 30
0.0
 40
0.5
  0
CIRCLE
  5
2DA
100
AcDbEntity
  8
Layer00004
  6
Continuous
 62
               3
100
AcDbCircle
 10
200.5671171794414
 20
30.770031167019766
 30
0.0
 40
0.5
  0
CIRCLE
  5
2DB
100
AcDbEntity
  8
Layer00004
  6
Continuous
 62
               3
100
AcDbCircle
 10
140.5671171794414
 20
30.770031167019766
 30
0.0
 40
0.5
  0
CIRCLE
  5
2DC
100
AcDbEntity
  8
Layer00004
  6
Continuous
 62
               3
100
AcDbCircle
 10
200.5671171794414
 20
24.715922814182846
 30
0.0
 40
0.5
  0
CIRCLE
  5
2DD
100
AcDbEntity
  8
Layer00004
  6
Continuous
 62
               3
100
AcDbCircle
 10
128.0671171794414
 20
24.715922814182846
 30
0.0
 40
0.5
  0
CIRCLE
  5
2DE
100
AcDbEntity
  8
Layer00004
  6
Continuous
 62
               3
100
AcDbCircle
 10
140.5671171794414
 20
235.90426807494319
 30
0.0
 40
0.5
  0
CIRCLE
  5
2DF
100
AcDbEntity
  8
Layer00004
  6
Continuous
 62
               3
100
AcDbCircle
 10
107.5671171794414
 20
235.90426807494319
 30
0.0
 40
0.5
  0
CIRCLE
  5
2E0
100
AcDbEntity
  8
Layer00004
  6
Continuous
 62
               3
100
AcDbCircle
 10
107.5671171794414
 20
235.90426807494319
 30
0.0
 40
0.5
  0
CIRCLE
  5
2E1
100
AcDbEntity
  8
Layer00004
  6
Continuous
 62
               3
100
AcDbCircle
 10
89.567117179441397
 20
235.90426807494319
 30
0.0
 40
0.5
  0
CIRCLE
  5
2E2
100
AcDbEntity
  8
Layer00004
  6
Continuous
 62
               3
100
AcDbCircle
 10
173.56711717944322
 20
36.211110507423342
 30
0.0
 40
0.5
  0
CIRCLE
  5
2E3
100
AcDbEntity
  8
Layer00004
  6
Continuous
 62
               3
100
AcDbCircle
 10
140.5671171794414
 20
36.211110507423342
 30
0.0
 40
0.5
  0
CIRCLE
  5
2E4
100
AcDbEntity
  8
Layer00004
  6
Continuous
 62
               3
100
AcDbCircle
 10
191.56711717944231
 20
36.211110507423342
 30
0.0
 40
0.5
  0
CIRCLE
  5
2E5
100
AcDbEntity
  8
Layer00004
  6
Continuous
 62
               3
100
AcDbCircle
 10
173.56711717944322
 20
36.211110507423342
 30
0.0
 40
0.5
  0
CIRCLE
  5
2E6
100
AcDbEntity
  8
Layer00004
  6
Continuous
 62
               7
100
AcDbCircle
 10
140.5671171794414
 20
259.90776067733907
 30
0.0
 40
6.0
  0
CIRCLE
  5
2E7
100
AcDbEntity
  8
Layer00004
  6
Continuous
 62
               3
100
AcDbCircle
 10
300.35803994375544
 20
154.42607173428465
 30
0.0
 40
0.5
  0
CIRCLE
  5
2E8
100
AcDbEntity
  8
Layer00004
  6
Continuous
 62
               3
100
AcDbCircle
 10
300.35803994375544
 20
177.4260720317308
 30
0.0
 40
0.5
  0
CIRCLE
  5
2E9
100
AcDbEntity
  8
Layer00004
  6
Continuous
 62
               3
100
AcDbCircle
 10
275.75803994375508
 20
133.17972152952385
 30
0.0
 40
0.5
  0
CIRCLE
  5
2EA
100
AcDbEntity
  8
Layer00004
  6
Continuous
 62
               3
100
AcDbCircle
 10
265.75803994375872
 20
133.17972152952385
 30
0.0
 40
0.5
  0
CIRCLE
  5
2EB
100
AcDbEntity
  8
Layer00004
  6
Continuous
 62
               3
100
AcDbCircle
 10
278.75803994375508
 20
128.64720507890448
 30
0.0
 40
0.5
  0
CIRCLE
  5
2EC
100
AcDbEntity
  8
Layer00004
  6
Continuous
 62
               3
100
AcDbCircle
 10
265.75803994375872
 20
128.64720507890448
 30
0.0
 40
0.5
  0
CIRCLE
  5
2ED
100
AcDbEntity
  8
Layer00004
  6
Continuous
 62
               3
100
AcDbCircle
 10
278.75803994375508
 20
230.7945434721552
 30
0.0
 40
0.5
  0
CIRCLE
  5
2EE
100
AcDbEntity
  8
Layer00004
  6
Continuous
 62
               3
100
AcDbCircle
 10
272.75803994375508
 20
230.7945434721552
 30
0.0
 40
0.5
  0
CIRCLE
  5
2EF
100
AcDbEntity
  8
Layer00004
  6
Continuous
 62
               3
100
AcDbCircle
 10
278.25803994375326
 20
225.62855264967826
 30
0.0
 40
0.5
  0
CIRCLE
  5
2F0
100
AcDbEntity
  8
Layer00004
  6
Continuous
 62
               3
100
AcDbCircle
 10
273.2580399437569
 20
225.62855264967826
 30
0.0
 40
0.5
  0
CIRCLE
  5
2F1
100
AcDbEntity
  8
Layer00004
  6
Continuous
 62
               3
100
AcDbCircle
 10
278.25803994375326
 20
225.6285526496778
 30
0.0
 40
0.5
  0
CIRCLE
  5
2F2
100
AcDbEntity
  8
Layer00004
  6
Continuous
 62
               3
100
AcDbCircle
 10
278.75803994375508
 20
225.6285526496778
 30
0.0
 40
0.5
  0
CIRCLE
  5
2F3
100
AcDbEntity
  8
Layer00004
  6
Continuous
 62
               3
100
AcDbCircle
 10
273.2580399437569
 20
225.6285526496778
 30
0.0
 40
0.5
  0
CIRCLE
  5
2F4
100
AcDbEntity
  8
Layer00004
  6
Continuous
 62
               3
100
AcDbCircle
 10
272.7580399437569
 20
225.6285526496778
 30
0.0
 40
0.5
  0
CIRCLE
  5
2F5
100
AcDbEntity
  8
Layer00004
  6
Continuous
 62
               7
100
AcDbCircle
 10
265.75803994376054
 20
154.42607173428237
 30
0.0
 40
6.0
  0
CIRCLE
  5
2F6
100
AcDbEntity
  8
Layer00004
  6
Continuous
 62
               3
100
AcDbCircle
 10
153.0671171794414
 20
41.19377957232669
 30
0.0
 40
0.5
  0
CIRCLE
  5
2F7
100
AcDbEntity
  8
Layer00004
  6
Continuous
 62
               3
100
AcDbCircle
 10
128.0671171794414
 20
41.19377957232669
 30
0.0
 40
0.5
  0
CIRCLE
  5
2F8
100
AcDbEntity
  8
Layer00004
  6
Continuous
 62
               3
100
AcDbCircle
 10
159.85577368087192
 20
141.19377957232669
 30
0.0
 40
0.5
  0
CIRCLE
  5
2F9
100
AcDbEntity
  8
Layer00004
  6
Continuous
 62
               3
100
AcDbCircle
 10
230.09507240548768
 20
231.19377957232669
 30
0.0
 40
0.5
  0
CIRCLE
  5
2FA
100
AcDbEntity
  8
Layer00004
  6
Continuous
 62
               3
100
AcDbCircle
 10
217.97698518084266
 20
48.19377957232669
 30
0.0
 40
0.5
  0
CIRCLE
  5
2FB
100
AcDbEntity
  8
Layer00004
  6
Continuous
 62
               3
100
AcDbCircle
 10
217.97698518084266
 20
141.19377957232669
 30
0.0
 40
0.5
  0
CIRCLE
  5
2FC
100
AcDbEntity
  8
Layer00004
  6
Continuous
 62
               3
100
AcDbCircle
 10
217.97698518084266
 20
138.19377957232669
 30
0.0
 40
0.5
  0
CIRCLE
  5
2FD
100
AcDbEntity
  8
Layer00004
  6
Continuous
 62
               3
100
AcDbCircle
 10
217.97698518084266
 20
231.19377957232669
 30
0.0
 40
0.5
  0
CIRCLE
  5
2FE
100
AcDbEntity
  8
Layer00004
  6
Continuous
 62
               3
100
AcDbCircle
 10
217.97698518084266
 20
141.19377957232669
 30
0.0
 40
0.5
  0
CIRCLE
  5
2FF
100
AcDbEntity
  8
Layer00004
  6
Continuous
 62
               3
100
AcDbCircle
 10
227.59507240548768
 20
48.19377957232669
 30
0.0
 40
0.5
  0
CIRCLE
  5
300
100
AcDbEntity
  8
Layer00004
  6
Continuous
 62
               3
100
AcDbCircle
 10
209.3894556821127
 20
138.19377957232669
 30
0.0
 40
0.5
  0
CIRCLE
  5
301
100
AcDbEntity
  8
Layer00004
  6
Continuous
 62
               3
100
AcDbCircle
 10
209.3894556821127
 20
128.19377957232669
 30
0.0
 40
0.5
  0
CIRCLE
  5
302
100
AcDbEntity
  8
Layer00004
  6
Continuous
 62
               3
100
AcDbCircle
 10
209.3894556821127
 20
128.19377957232669
 30
0.0
 40
0.5
  0
CIRCLE
  5
303
100
AcDbEntity
  8
Layer00004
  6
Continuous
 62
               3
100
AcDbCircle
 10
209.3894556821127
 20
93.19377957232669
 30
0.0
 40
0.5
  0
CIRCLE
  5
304
100
AcDbEntity
  8
Layer00004
  6
Continuous
 62
               3
100
AcDbCircle
 10
209.3894556821127
 20
93.19377957232669
 30
0.0
 40
0.5
  0
CIRCLE
  5
305
100
AcDbEntity
  8
Layer00004
  6
Continuous
 62
               3
100
AcDbCircle
 10
209.3894556821127
 20
58.19377957232669
 30
0.0
 40
0.5
  0
CIRCLE
  5
306
100
AcDbEntity
  8
Layer00004
  6
Continuous
 62
               3
100
AcDbCircle
 10
209.3894556821127
 20
58.19377957232669
 30
0.0
 40
0.5
  0
CIRCLE
  5
307
100
AcDbEntity
  8
Layer00004
  6
Continuous
 62
               3
100
AcDbCircle
 10
217.97698518084266
 20
259.90776067733907
 30
0.0
 40
0.5
  0
CIRCLE
  5
308
100
AcDbEntity
  8
Layer00004
  6
Continuous
 62
               3
100
AcDbCircle
 10
217.97698518084266
 20
247.40776067734001
 30
0.0
 40
0.5
  0
CIRCLE
  5
309
100
AcDbEntity
  8
Layer00004
  6
Continuous
 62
               3
100
AcDbCircle
 10
208.8894556821127
 20
252.40776067733773
 30
0.0
 40
0.5
  0
CIRCLE
  5
30A
100
AcDbEntity
  8
Layer00004
  6
Continuous
 62
               3
100
AcDbCircle
 10
208.8894556821127
 20
247.40776067734001
 30
0.0
 40
0.5
  0
CIRCLE
  5
30B
100
AcDbEntity
  8
Layer00004
  6
Continuous
 62
               3
100
AcDbCircle
 10
208.88945568211361
 20
252.90776067733773
 30
0.0
 40
0.5
  0
CIRCLE
  5
30C
100
AcDbEntity
  8
Layer00004
  6
Continuous
 62
               3
100
AcDbCircle
 10
208.88945568211361
 20
252.40776067733773
 30
0.0
 40
0.5
  0
CIRCLE
  5
30D
100
AcDbEntity
  8
Layer00004
  6
Continuous
 62
               3
100
AcDbCircle
 10
77.488458773418955
 20
272.90776067733589
 30
0.0
 40
0.5
  0
CIRCLE
  5
30E
100
AcDbEntity
  8
Layer00004
  6
Continuous
 62
               3
100
AcDbCircle
 10
77.488458773418955
 20
272.40776067733589
 30
0.0
 40
0.5
  0
CIRCLE
  5
30F
100
AcDbEntity
  8
Layer00004
  6
Continuous
 62
               3
100
AcDbCircle
 10
71.551160486894645
 20
259.90776067733907
 30
0.0
 40
0.5
  0
CIRCLE
  5
310
100
AcDbEntity
  8
Layer00004
  6
Continuous
 62
               3
100
AcDbCircle
 10
71.551160486894645
 20
272.90776067733589
 30
0.0
 40
0.5
  0
CIRCLE
  5
311
100
AcDbEntity
  8
Layer00004
  6
Continuous
 62
               3
100
AcDbCircle
 10
77.488458773418955
 20
272.40776067733498
 30
0.0
 40
0.5
  0
CIRCLE
  5
312
100
AcDbEntity
  8
Layer00004
  6
Continuous
 62
               3
100
AcDbCircle
 10
77.488458773420774
 20
267.40776067733498
 30
0.0
 40
0.5
  0
CIRCLE
  5
313
100
AcDbEntity
  8
Layer00004
  6
Continuous
 62
               3
100
AcDbCircle
 10
72.722234374906606
 20
221.19377957232851
 30
0.0
 40
0.5
  0
CIRCLE
  5
314
100
AcDbEntity
  8
Layer00004
  6
Continuous
 62
               3
100
AcDbCircle
 10
72.722234374906606
 20
186.19377957232851
 30
0.0
 40
0.5
  0
CIRCLE
  5
315
100
AcDbEntity
  8
Layer00004
  6
Continuous
 62
               3
100
AcDbCircle
 10
72.722234374906606
 20
186.19377957232851
 30
0.0
 40
0.5
  0
CIRCLE
  5
316
100
AcDbEntity
  8
Layer00004
  6
Continuous
 62
               3
100
AcDbCircle
 10
72.722234374906606
 20
151.19377957232805
 30
0.0
 40
0.5
  0
CIRCLE
  5
317
100
AcDbEntity
  8
Layer00004
  6
Continuous
 62
               3
100
AcDbCircle
 10
72.722234374906606
 20
151.19377957232805
 30
0.0
 40
0.5
  0
CIRCLE
  5
318
100
AcDbEntity
  8
Layer00004
  6
Continuous
 62
               3
100
AcDbCircle
 10
72.722234374906606
 20
141.19377957232669
 30
0.0
 40
0.5
  0
CIRCLE
  5
319
100
AcDbEntity
  8
Layer00004
  6
Continuous
 62
               3
100
AcDbCircle
 10
72.722234374906606
 20
221.19377957232851
 30
0.0
 40
0.5
  0
ARC
  5
31A
100
AcDbEntity
  8
Layer00004
  6
DASHED
 62
               7
100
AcDbCircle
 10
140.5671171794414
 20
259.90776067733907
 30
0.0
 40
12.499999999994543
100
AcDbArc
 50
179.99999999998124
 51
270.0
  0
ARC
  5
31B
100
AcDbEntity
  8
Layer00004
  6
DASHED
 62
               7
100
AcDbCircle
 10
140.5671171794414
 20
259.90776067733907
 30
0.0
 40
12.499999999994543
100
AcDbArc
 50
179.99999999998124
 51
269.99999999998539
  0
ARC
  5
31C
100
AcDbEntity
  8
Layer00004
  6
Continuous
 62
               7
100
AcDbCircle
 10
195.5671171794414
 20
53.19377957232669
 30
0.0
 40
5.0
100
AcDbArc
 50
270.0
 51
0.0
  0
ARC
  5
31D
100
AcDbEntity
  8
Layer00004
  6
Continuous
 62
               7
100
AcDbCircle
 10
195.5671171794414
 20
133.19377957232669
 30
0.0
 40
5.0
100
AcDbArc
 50
0.0
 51
90.000000000000028
  0
ARC
  5
31E
100
AcDbEntity
  8
Layer00004
  6
DASHED
 62
               7
100
AcDbCircle
 10
113.06711717944231
 20
226.69377957232669
 30
0.0
 40
2.0
100
AcDbArc
 50
0.0
 51
90.000000000000028
  0
ARC
  5
31F
100
AcDbEntity
  8
Layer00004
  6
DASHED
 62
               7
100
AcDbCircle
 10
113.06711717944231
 20
145.69377957232669
 30
0.0
 40
2.0
100
AcDbArc
 50
270.0
 51
0.0
  0
ARC
  5
320
100
AcDbEntity
  8
Layer00004
  6
DASHED
 62
               7
100
AcDbCircle
 10
84.067117179442306
 20
226.69377957232669
 30
0.0
 40
2.0
100
AcDbArc
 50
90.000000000000028
 51
180.0
  0
ARC
  5
321
100
AcDbEntity
  8
Layer00004
  6
DASHED
 62
               7
100
AcDbCircle
 10
84.067117179443215
 20
145.69377957232714
 30
0.0
 40
2.0
100
AcDbArc
 50
180.0
 51
270.0
  0
ARC
  5
322
100
AcDbEntity
  8
Layer00004
  6
DASHED
 62
               7
100
AcDbCircle
 10
168.06711717944231
 20
133.69377957232851
 30
0.0
 40
2.0
100
AcDbArc
 50
90.000000000000028
 51
180.0
  0
ARC
  5
323
100
AcDbEntity
  8
Layer00004
  6
DASHED
 62
               7
100
AcDbCircle
 10
168.06711717944322
 20
52.693779572328964
 30
0.0
 40
2.0
100
AcDbArc
 50
180.0
 51
270.0
  0
ARC
  5
324
100
AcDbEntity
  8
Layer00004
  6
DASHED
 62
               7
100
AcDbCircle
 10
196.56711717944322
 20
133.69377957232851
 30
0.0
 40
2.0
100
AcDbArc
 50
0.0
 51
90.000000000000028
  0
ARC
  5
325
100
AcDbEntity
  8
Layer00004
  6
DASHED
 62
               7
100
AcDbCircle
 10
196.56711717944322
 20
52.693779572328509
 30
0.0
 40
2.0
100
AcDbArc
 50
270.0
 51
0.0
  0
ARC
  5
326
100
AcDbEntity
  8
Layer00004
  6
Continuous
 62
               7
100
AcDbCircle
 10
85.567117179441397
 20
226.19377957232669
 30
0.0
 40
5.0
100
AcDbArc
 50
90.000000000000028
 51
180.0
  0
ARC
  5
327
100
AcDbEntity
  8
Layer00004
  6
Continuous
 62
               7
100
AcDbCircle
 10
85.567117179441397
 20
146.19377957232669
 30
0.0
 40
5.0
100
AcDbArc
 50
180.0
 51
270.0
  0
ARC
  5
328
100
AcDbEntity
  8
Layer00004
  6
Continuous
 62
               7
100
AcDbCircle
 10
140.56711717944049
 20
259.9077606773368
 30
0.0
 40
12.499999999994543
100
AcDbArc
 50
180.00000000017928
 51
90.0
  0
ARC
  5
329
100
AcDbEntity
  8
Layer00004
  6
Continuous
 62
               7
100
AcDbCircle
 10
120.56711717942048
 20
259.90776067727404
 30
0.0
 40
7.5
100
AcDbArc
 50
0.0000000001806536
 51
89.999999999916653
  0
ARC
  5
32A
100
AcDbEntity
  8
Layer00004
  6
Continuous
 62
               7
100
AcDbCircle
 10
160.56711717940229
 20
259.90776067738454
 30
0.0
 40
7.5
100
AcDbArc
 50
180.00000000013893
 51
269.99999999993747
  0
ARC
  5
32B
100
AcDbEntity
  8
Layer00004
  6
Continuous
 62
               7
100
AcDbCircle
 10
345.33330495483403
 20
88.087958021127321
 30
0.0
 40
3.0
100
AcDbArc
 50
195.66248253798517
 51
240.00000000000279
  0
ARC
  5
32C
100
AcDbEntity
  8
Layer00004
  6
DIVIDE
 62
               4
100
AcDbCircle
 10
325.28288287378871
 20
132.02508097844898
 30
0.0
 40
1.0
100
AcDbArc
 50
299.99999999999727
 51
60.000000000002679
  0
ARC
  5
32D
100
AcDbEntity
  8
Layer00004
  6
DIVIDE
 62
               4
100
AcDbCircle
 10
303.94175192824639
 20
120.85847382060925
 30
0.0
 40
2.0
100
AcDbArc
 50
240.00000000000094
 51
299.99999999999727
  0
ARC
  5
32E
100
AcDbEntity
  8
Layer00004
  6
Continuous
 62
               7
100
AcDbCircle
 10
355.8666000840434
 20
72.610967009320262
 30
0.0
 40
3.0
100
AcDbArc
 50
0.0
 51
60.000000000002707
  0
ARC
  5
32F
100
AcDbEntity
  8
Layer00004
  6
Continuous
 62
               7
100
AcDbCircle
 10
358.00341990980576
 20
73.84466051093446
 30
0.0
 40
3.0
100
AcDbArc
 50
0.0
 51
60.000000000002707
  0
ARC
  5
330
100
AcDbEntity
  8
Layer00004
  6
Continuous
 62
               7
100
AcDbCircle
 10
314.60789029816931
 20
112.66821741774962
 30
0.0
 40
3.0
100
AcDbArc
 50
120.00000000000165
 51
180.0
  0
ARC
  5
331
100
AcDbEntity
  8
Layer00004
  6
Continuous
 62
               7
100
AcDbCircle
 10
312.09191273634804
 20
114.12081774034246
 30
0.0
 40
3.0
100
AcDbArc
 50
119.9999999999973
 51
180.0
  0
ARC
  5
332
100
AcDbEntity
  8
Layer00004
  6
Continuous
 62
               7
100
AcDbCircle
 10
310.59191273634804
 20
82.450944759173268
 30
0.0
 40
1.5
100
AcDbArc
 50
180.0
 51
239.99999999999835
  0
ARC
  5
333
100
AcDbEntity
  8
Layer00004
  6
Continuous
 62
               7
100
AcDbCircle
 10
313.10789029816931
 20
80.998344436576787
 30
0.0
 40
1.5
100
AcDbArc
 50
180.0
 51
300.00000000000801
  0
ARC
  5
334
100
AcDbEntity
  8
Layer00004
  6
Continuous
 62
               7
100
AcDbCircle
 10
332.73647054483388
 20
124.23661128317386
 30
0.0
 40
2.0
100
AcDbArc
 50
75.00000000003071
 51
104.99999999997851
  0
ARC
  5
335
100
AcDbEntity
  8
Layer00004
  6
Continuous
 62
               7
100
AcDbCircle
 10
332.73647054483388
 20
88.236611283174312
 30
0.0
 40
2.0
100
AcDbArc
 50
75.00000000003071
 51
104.99999999997851
  0
ARC
  5
336
100
AcDbEntity
  8
Layer00004
  6
DIVIDE
 62
               4
100
AcDbCircle
 10
357.32217099066418
 20
123.77171301345393
 30
0.0
 40
2.0
100
AcDbArc
 50
59.999999999996227
 51
119.9999999999973
  0
ARC
  5
337
100
AcDbEntity
  8
Layer00004
  6
DIVIDE
 62
               4
100
AcDbCircle
 10
346.50402484185486
 20
119.25790422987453
 30
0.0
 40
0.5
100
AcDbArc
 50
120.00000000001035
 51
239.99999999998971
  0
ARC
  5
338
100
AcDbEntity
  8
Layer00004
  6
Continuous
 62
               7
100
AcDbCircle
 10
265.75803994375781
 20
154.42607173428374
 30
0.0
 40
12.499999999994543
100
AcDbArc
 50
91.397596628234055
 51
0.0
  0
ARC
  5
339
100
AcDbEntity
  8
Layer00004
  6
Continuous
 62
               7
100
AcDbCircle
 10
265.25803994376236
 20
174.91997326620518
 30
0.0
 40
8.0
100
AcDbArc
 50
271.39759662823047
 51
0.0
  0
ELLIPSE
  5
33A
100
AcDbEntity
  8
Layer00004
  6
Continuous
 62
               7
100
AcDbEllipse
 10
131.91517913595212
 20
201.1947859996009
 30
0.0
 11
-0.000000000000001
 21
2.500000000001819
 31
0.0
210
0.0
220
0.0
230
1.0
 40
0.7071674159371779
 41
0.0
 42
6.2831853071795862
  0
ELLIPSE
  5
33B
100
AcDbEntity
  8
Layer00004
  6
DASHED
 62
               7
100
AcDbEllipse
 10
149.2190552229325
 20
118.19377957232669
 30
0.0
 11
0.0000000000000018
 21
2.500000000001819
 31
0.0
210
0.0
220
0.0
230
1.0
 40
0.7071674159371779
 41
0.0
 42
6.2831853071795862
  0
ELLIPSE
  5
33C
100
AcDbEntity
  8
Layer00004
  6
DASHED
 62
               7
100
AcDbEllipse
 10
136.32503645557276
 20
201.19478599960181
 30
0.0
 11
-0.000000000000001
 21
2.500000000001819
 31
0.0
210
0.0
220
0.0
230
1.0
 40
0.7071674159373599
 41
3.2776761488274362
 42
6.1786665854737217
  0
ELLIPSE
  5
33D
100
AcDbEntity
  8
Layer00004
  6
DASHDOT
 62
               6
100
AcDbEllipse
 10
369.24080192828603
 20
117.96973267855006
 30
0.0
 11
-98.814916236859062
 21
3.5395180083038102
 31
0.0
210
0.0
220
0.0
230
1.0
 40
0.6000000000000224
 41
1.0673061548306619
 42
1.3377380518941331
  0
ELLIPSE
  5
33E
100
AcDbEntity
  8
Layer00004
  6
DASHDOT
 62
               6
100
AcDbEllipse
 10
359.65222070309881
 20
121.30438139824597
 30
0.0
 11
-98.005741818490606
 21
-13.106884802885666
 31
0.0
210
0.0
220
0.0
230
1.0
 40
0.600000000000018
 41
1.0548887130077149
 42
1.334484066131572
  0
TEXT
  5
33F
100
AcDbEntity
  8
Layer00004
 62
               3
100
AcDbText
 10
285.2580399437478
 20
162.92607188300795
 30
0.0
 40
3.0
  1
20
 50
90.000000000000028
 72
               5
 11
285.2580399437478
 21
165.92607188300795
 31
0.0
100
AcDbText
  0
TEXT
  5
340
100
AcDbEntity
  8
Layer00004
 62
               3
100
AcDbText
 10
285.2580399437478
 20
175.17607203173262
 30
0.0
 40
3.0
  1
3
 50
90.000000000000028
 72
               5
 11
285.2580399437478
 21
176.67607203173262
 31
0.0
100
AcDbText
  0
TEXT
  5
341
100
AcDbEntity
  8
Layer00004
 62
               3
100
AcDbText
 10
300.35803994375453
 20
194.42607188300613
 30
0.0
 40
3.0000000000009099
  1
37
 50
90.000000000000028
 41
0.9999999999996967
 72
               5
 11
300.35803994375453
 21
197.42607188300613
 31
0.0
100
AcDbText
  0
TEXT
  5
342
100
AcDbEntity
  8
Layer00004
 62
               3
100
AcDbText
 10
169.0671171794414
 20
30.770031167019766
 30
0.0
 40
3.0000000000002269
  1
60
 41
0.9999999999999244
 72
               5
 11
172.0671171794414
 21
30.770031167019766
 31
0.0
100
AcDbText
  0
TEXT
  5
343
100
AcDbEntity
  8
Layer00004
 62
               3
100
AcDbText
 10
172.0671171794414
 20
32.270031167019766
 30
0.0
 40
1.4999999999997731
  1
-0
 41
1.0000000000001512
 72
               5
 11
173.5671171794414
 21
32.270031167019766
 31
0.0
100
AcDbText
  0
TEXT
  5
344
100
AcDbEntity
  8
Layer00004
 62
               3
100
AcDbText
 10
161.3171171794414
 20
24.715922814182846
 30
0.0
 40
2.9999999999997731
  1
72.5
 41
1.0000000000000757
 72
               5
 11
167.3171171794414
 21
24.715922814182846
 31
0.0
100
AcDbText
  0
TEXT
  5
345
100
AcDbEntity
  8
Layer00004
 62
               3
100
AcDbText
 10
122.5671171794414
 20
235.90426807494319
 30
0.0
 40
3.0
  1
33
 72
               5
 11
125.5671171794414
 21
235.90426807494319
 31
0.0
100
AcDbText
  0
TEXT
  5
346
100
AcDbEntity
  8
Layer00004
 62
               3
100
AcDbText
 10
97.067117179441397
 20
235.90426807494319
 30
0.0
 40
3.0
  1
18
 72
               5
 11
100.0671171794414
 21
235.90426807494319
 31
0.0
100
AcDbText
  0
TEXT
  5
347
100
AcDbEntity
  8
Layer00004
 62
               3
100
AcDbText
 10
155.5671171794414
 20
36.211110507423342
 30
0.0
 40
3.0
  1
33
 72
               5
 11
158.5671171794414
 21
36.211110507423342
 31
0.0
100
AcDbText
  0
TEXT
  5
348
100
AcDbEntity
  8
Layer00004
 62
               3
100
AcDbText
 10
181.0671171794414
 20
36.211110507423342
 30
0.0
 40
3.0
  1
18
 72
               5
 11
184.0671171794414
 21
36.211110507423342
 31
0.0
100
AcDbText
  0
TEXT
  5
349
100
AcDbEntity
  8
Layer00004
 62
               3
100
AcDbText
 10
300.35803994375544
 20
164.42607188300795
 30
0.0
 40
3.0
  1
23
 50
90.000000000000028
 72
               5
 11
300.35803994375544
 21
167.42607188300795
 31
0.0
100
AcDbText
  0
TEXT
  5
34A
100
AcDbEntity
  8
Layer00004
 62
               3
100
AcDbText
 10
269.2580399437569
 20
133.17972152952385
 30
0.0
 40
3.0000000000006821
  1
10
 41
0.9999999999997726
 72
               5
 11
272.2580399437569
 21
133.17972152952385
 31
0.0
100
AcDbText
  0
TEXT
  5
34B
100
AcDbEntity
  8
Layer00004
 62
               3
100
AcDbText
 10
275.00803994375508
 20
230.7945434721552
 30
0.0
 40
2.9999999999997731
  1
6
 41
1.0000000000000757
 72
               5
 11
276.50803994375508
 21
230.7945434721552
 31
0.0
100
AcDbText
  0
TEXT
  5
34C
100
AcDbEntity
  8
Layer00004
 62
               3
100
AcDbText
 10
275.00803994375508
 20
225.62855264967826
 30
0.0
 40
3.0000000000002269
  1
5
 41
0.9999999999999244
 72
               5
 11
276.50803994375508
 21
225.62855264967826
 31
0.0
100
AcDbText
  0
TEXT
  5
34D
100
AcDbEntity
  8
Layer00004
 62
               3
100
AcDbText
 10
282.82256082870788
 20
225.6285526496778
 30
0.0
 40
3.0000000000002269
  1
0.5
 41
0.9999999999999244
 72
               5
 11
287.32256082870788
 21
225.6285526496778
 31
0.0
100
AcDbText
  0
TEXT
  5
34E
100
AcDbEntity
  8
Layer00004
 62
               3
100
AcDbText
 10
265.92685591042334
 20
225.6285526496778
 30
0.0
 40
3.0000000000002269
  1
0.5
 41
0.9999999999999244
 72
               5
 11
270.42685591042334
 21
225.6285526496778
 31
0.0
100
AcDbText
  0
TEXT
  5
34F
100
AcDbEntity
  8
Layer00004
 62
               7
100
AcDbText
 10
323.23355067387035
 20
246.52213173206397
 30
0.0
 40
3.0000000000002269
  1
扉
 41
0.9999999999999244
 72
               5
 11
326.23355067387035
 21
246.52213173206397
 31
0.0
100
AcDbText
  0
TEXT
  5
350
100
AcDbEntity
  8
Layer00004
 62
               7
100
AcDbText
 10
299.89476947717355
 20
261.9999906776012
 30
0.0
 40
3.0
  1
枠
 72
               5
 11
302.89476947717355
 21
261.9999906776012
 31
0.0
100
AcDbText
  0
TEXT
  5
351
100
AcDbEntity
  8
Layer00004
 62
               7
100
AcDbText
 10
318.29989138027065
 20
65.045198509646212
 30
0.0
 40
1.799999999999522
  1
９０°開
 50
339.99999999999955
 41
1.0000000000003022
 72
               5
 11
325.06567824992942
 21
62.582653477701257
 31
0.0
100
AcDbText
  0
TEXT
  5
352
100
AcDbEntity
  8
Layer00004
 62
               3
100
AcDbText
 10
269.2580399437569
 20
128.64720507890448
 30
0.0
 40
2.9999999999997731
  1
(13)
 41
1.0000000000000757
 72
               5
 11
275.2580399437569
 21
128.64720507890448
 31
0.0
100
AcDbText
  0
TEXT
  5
353
100
AcDbEntity
  8
Layer00004
 62
               7
100
AcDbText
 10
319.4738133380082
 20
161.52944741827437
 30
0.0
 40
3.0
  1
※ 90°以上開の状態で行ってください。 ※
 72
               5
 11
379.4738133380082
 21
161.52944741827437
 31
0.0
100
AcDbText
  0
TEXT
  5
354
100
AcDbEntity
  8
Layer00004
 62
               3
100
AcDbText
 10
217.97698518084266
 20
138.94377957232624
 30
0.0
 40
3.0000000000009099
  1
3
 50
90.000000000000028
 41
0.9999999999996967
 72
               5
 11
217.97698518084266
 21
140.44377957232624
 31
0.0
100
AcDbText
  0
TEXT
  5
355
100
AcDbEntity
  8
Layer00004
 62
               3
100
AcDbText
 10
209.3894556821127
 20
131.69377957232714
 30
0.0
 40
2.9999999999990909
  1
10
 50
90.000000000000028
 41
1.0000000000003031
 72
               5
 11
209.3894556821127
 21
134.69377957232714
 31
0.0
100
AcDbText
  0
TEXT
  5
356
100
AcDbEntity
  8
Layer00004
 62
               3
100
AcDbText
 10
209.3894556821127
 20
109.19377957232714
 30
0.0
 40
2.999999999998181
  1
35
 50
90.000000000000028
 41
1.0000000000006064
 72
               5
 11
209.3894556821127
 21
112.19377957232714
 31
0.0
100
AcDbText
  0
TEXT
  5
357
100
AcDbEntity
  8
Layer00004
 62
               3
100
AcDbText
 10
209.3894556821127
 20
74.193779572327145
 30
0.0
 40
2.9999999999990909
  1
35
 50
90.000000000000028
 41
1.0000000000003031
 72
               5
 11
209.3894556821127
 21
77.193779572327145
 31
0.0
100
AcDbText
  0
TEXT
  5
358
100
AcDbEntity
  8
Layer00004
 62
               3
100
AcDbText
 10
217.97698518084266
 20
250.65776067733955
 30
0.0
 40
3.0
  1
12.5
 50
90.000000000000028
 72
               5
 11
217.97698518084266
 21
256.65776067733952
 31
0.0
100
AcDbText
  0
TEXT
  5
359
100
AcDbEntity
  8
Layer00004
 62
               3
100
AcDbText
 10
208.88945568211361
 20
253.63143811897649
 30
0.0
 40
2.9999999999990909
  1
0.5
 50
90.000000000000028
 41
1.0000000000003031
 72
               5
 11
208.88945568211361
 21
258.13143811897646
 31
0.0
100
AcDbText
  0
TEXT
  5
35A
100
AcDbEntity
  8
Layer00004
 62
               7
100
AcDbText
 10
211.92814888825282
 20
236.89614591081514
 30
0.0
 40
3.0
  1
0.5mmライナー×２枚付属
 72
               5
 11
246.42814888825282
 21
236.89614591081514
 31
0.0
100
AcDbText
  0
TEXT
  5
35B
100
AcDbEntity
  8
Layer00004
 62
               3
100
AcDbText
 10
216.47698518084266
 20
187.69377957232624
 30
0.0
 40
1.4999999999990909
  1
-0
 50
90.000000000000028
 41
1.000000000000606
 72
               5
 11
216.47698518084266
 21
189.19377957232624
 31
0.0
100
AcDbText
  0
TEXT
  5
35C
100
AcDbEntity
  8
Layer00004
 62
               3
100
AcDbText
 10
217.97698518084266
 20
184.69377957232624
 30
0.0
 40
2.9999999999990909
  1
90
 50
90.000000000000028
 41
1.0000000000003031
 72
               5
 11
217.97698518084266
 21
187.69377957232624
 31
0.0
100
AcDbText
  0
TEXT
  5
35D
100
AcDbEntity
  8
Layer00004
 62
               3
100
AcDbText
 10
216.47698518084266
 20
94.693779572326235
 30
0.0
 40
1.5
  1
-0
 50
90.000000000000028
 72
               5
 11
216.47698518084266
 21
96.193779572326235
 31
0.0
100
AcDbText
  0
TEXT
  5
35E
100
AcDbEntity
  8
Layer00004
 62
               3
100
AcDbText
 10
217.97698518084266
 20
91.693779572326235
 30
0.0
 40
2.9999999999990909
  1
90
 50
90.000000000000028
 41
1.0000000000003031
 72
               5
 11
217.97698518084266
 21
94.693779572326235
 31
0.0
100
AcDbText
  0
TEXT
  5
35F
100
AcDbEntity
  8
Layer00004
 62
               3
100
AcDbText
 10
227.59507240548768
 20
137.44377957232714
 30
0.0
 40
3.0000000000009099
  1
(183)
 50
90.000000000000028
 41
0.9999999999996967
 72
               5
 11
227.59507240548768
 21
144.94377957232714
 31
0.0
100
AcDbText
  0
TEXT
  5
360
100
AcDbEntity
  8
Layer00004
 62
               3
100
AcDbText
 10
77.488458773418955
 20
274.33248570629496
 30
0.0
 40
3.0
  1
0.5
 50
90.000000000000028
 72
               5
 11
77.488458773418955
 21
278.83248570629496
 31
0.0
100
AcDbText
  0
TEXT
  5
361
100
AcDbEntity
  8
Layer00004
 62
               3
100
AcDbText
 10
72.722234374906606
 20
202.19377957232851
 30
0.0
 40
3.0000000000009099
  1
35
 50
90.000000000000028
 41
0.9999999999996967
 72
               5
 11
72.722234374906606
 21
205.19377957232851
 31
0.0
100
AcDbText
  0
TEXT
  5
362
100
AcDbEntity
  8
Layer00004
 62
               3
100
AcDbText
 10
72.722234374906606
 20
167.19377957232805
 30
0.0
 40
3.0
  1
35
 50
90.000000000000028
 72
               5
 11
72.722234374906606
 21
170.19377957232805
 31
0.0
100
AcDbText
  0
TEXT
  5
363
100
AcDbEntity
  8
Layer00004
 62
               3
100
AcDbText
 10
72.722234374906606
 20
144.6937795723276
 30
0.0
 40
3.0
  1
10
 50
90.000000000000028
 72
               5
 11
72.722234374906606
 21
147.6937795723276
 31
0.0
100
AcDbText
  0
TEXT
  5
364
100
AcDbEntity
  8
Layer00004
 62
               3
100
AcDbText
 10
71.551160486894645
 20
263.4077606773368
 30
0.0
 40
2.9999999999990909
  1
(13)
 50
90.000000000000028
 41
1.0000000000003031
 72
               5
 11
71.551160486894645
 21
269.4077606773368
 31
0.0
100
AcDbText
  0
TEXT
  5
365
100
AcDbEntity
  8
Layer00004
 62
               3
100
AcDbText
 10
77.488458773420774
 20
269.15776067733407
 30
0.0
 40
3.0
  1
5
 50
90.000000000034746
 72
               5
 11
77.488458773419865
 21
270.65776067733407
 31
0.0
100
AcDbText
  0
TEXT
  5
366
100
AcDbEntity
  8
Layer00004
 62
               3
100
AcDbText
 10
208.8894556821127
 20
249.1577606773391
 30
0.0
 40
2.9999999999990909
  1
5
 50
90.000000000000028
 41
1.0000000000003031
 72
               5
 11
208.8894556821127
 21
250.6577606773391
 31
0.0
100
AcDbText
  0
TEXT
  5
367
100
AcDbEntity
  8
Layer00004
 62
               3
100
AcDbText
 10
161.90892962810116
 20
241.81049911746427
 30
0.0
 40
2.9999999999970441
  1
キャップ
 41
1.0000000000009852
 72
               5
 11
173.90892962810116
 21
241.81049911746427
 31
0.0
100
AcDbText
  0
TEXT
  5
368
100
AcDbEntity
  8
Layer00004
 62
               3
100
AcDbText
 10
157.10626109100517
 20
203.14724895547911
 30
0.0
 40
3.0
  1
高さ調整ネジ
 72
               5
 11
175.10626109100517
 21
203.14724895547911
 31
0.0
100
AcDbText
  0
TEXT
  5
369
100
AcDbEntity
  8
Layer00004
 62
               3
100
AcDbText
 10
158.59953201465882
 20
222.99896829346713
 30
0.0
 40
3.0
  1
固定ネジ
 72
               5
 11
170.59953201465882
 21
222.99896829346713
 31
0.0
100
AcDbText
  0
TEXT
  5
36A
100
AcDbEntity
  8
Layer00004
 62
               3
100
AcDbText
 10
83.578087646654552
 20
242.41764550712892
 30
0.0
 40
3.0
  1
12‐M6×20　SUS皿ビス
 72
               5
 11
115.07808764665455
 21
242.41764550712892
 31
0.0
100
AcDbText
  0
TEXT
  5
36B
100
AcDbEntity
  8
Layer00004
 62
               3
100
AcDbText
 10
137.5671171794414
 20
41.19377957232669
 30
0.0
 40
3.0
  1
Φ25
 72
               5
 11
143.5671171794414
 21
41.19377957232669
 31
0.0
100
AcDbText
  0
TEXT
  5
36C
100
AcDbEntity
  8
Layer00004
 62
               3
100
AcDbText
 10
159.21356826139467
 20
153.41221058901615
 30
0.0
 40
3.0
  1
無給油ブッシュ
 72
               5
 11
180.21356826139467
 21
153.41221058901615
 31
0.0
100
AcDbText
  0
LINE
  5
36D
100
AcDbEntity
  8
Layer00005
  6
DASHDOT
 62
               6
100
AcDbLine
 10
140.5671171794414
 20
278.2279478028114
 30
0.0
 11
140.5671171794414
 21
46.19377957232669
 31
0.0
  0
LINE
  5
36E
100
AcDbEntity
  8
Layer00005
  6
DASHDOT
 62
               6
100
AcDbLine
 10
107.5671171794414
 20
228.19362452865485
 30
0.0
 11
107.5671171794414
 21
214.19393452865793
 31
0.0
  0
LINE
  5
36F
100
AcDbEntity
  8
Layer00005
  6
DASHDOT
 62
               6
100
AcDbLine
 10
100.56711717944322
 20
221.19377957232669
 30
0.0
 11
114.5671171794414
 21
221.19377957232669
 31
0.0
  0
LINE
  5
370
100
AcDbEntity
  8
Layer00005
  6
DASHDOT
 62
               6
100
AcDbLine
 10
107.5671171794414
 20
193.19362452865485
 30
0.0
 11
107.5671171794414
 21
179.19393452865793
 31
0.0
  0
LINE
  5
371
100
AcDbEntity
  8
Layer00005
  6
DASHDOT
 62
               6
100
AcDbLine
 10
100.56711717944322
 20
186.19377957232669
 30
0.0
 11
114.5671171794414
 21
186.19377957232669
 31
0.0
  0
LINE
  5
372
100
AcDbEntity
  8
Layer00005
  6
DASHDOT
 62
               6
100
AcDbLine
 10
107.5671171794414
 20
158.1936245286544
 30
0.0
 11
107.5671171794414
 21
144.19393452865748
 31
0.0
  0
LINE
  5
373
100
AcDbEntity
  8
Layer00005
  6
DASHDOT
 62
               6
100
AcDbLine
 10
100.56711717944322
 20
151.19377957232624
 30
0.0
 11
114.5671171794414
 21
151.19377957232624
 31
0.0
  0
LINE
  5
374
100
AcDbEntity
  8
Layer00005
  6
DASHDOT
 62
               6
100
AcDbLine
 10
89.567117179441397
 20
228.19362452865667
 30
0.0
 11
89.567117179441397
 21
214.19393452865975
 31
0.0
  0
LINE
  5
375
100
AcDbEntity
  8
Layer00005
  6
DASHDOT
 62
               6
100
AcDbLine
 10
82.567117179443215
 20
221.19377957232851
 30
0.0
 11
96.567117179441397
 21
221.19377957232851
 31
0.0
  0
LINE
  5
376
100
AcDbEntity
  8
Layer00005
  6
DASHDOT
 62
               6
100
AcDbLine
 10
89.567117179442306
 20
193.19362452865667
 30
0.0
 11
89.567117179442306
 21
179.19393452865975
 31
0.0
  0
LINE
  5
377
100
AcDbEntity
  8
Layer00005
  6
DASHDOT
 62
               6
100
AcDbLine
 10
82.567117179444125
 20
186.19377957232851
 30
0.0
 11
96.567117179442306
 21
186.19377957232851
 31
0.0
  0
LINE
  5
378
100
AcDbEntity
  8
Layer00005
  6
DASHDOT
 62
               6
100
AcDbLine
 10
89.567117179442306
 20
158.19362452865622
 30
0.0
 11
89.567117179442306
 21
144.1939345286593
 31
0.0
  0
LINE
  5
379
100
AcDbEntity
  8
Layer00005
  6
DASHDOT
 62
               6
100
AcDbLine
 10
82.567117179444125
 20
151.19377957232805
 30
0.0
 11
96.567117179442306
 21
151.19377957232805
 31
0.0
  0
LINE
  5
37A
100
AcDbEntity
  8
Layer00005
  6
DASHDOT
 62
               6
100
AcDbLine
 10
173.56711717944322
 20
135.19362452865485
 30
0.0
 11
173.56711717944322
 21
121.19393452865793
 31
0.0
  0
LINE
  5
37B
100
AcDbEntity
  8
Layer00005
  6
DASHDOT
 62
               6
100
AcDbLine
 10
180.5671171794414
 20
128.19377957232669
 30
0.0
 11
166.56711717944322
 21
128.19377957232669
 31
0.0
  0
LINE
  5
37C
100
AcDbEntity
  8
Layer00005
  6
DASHDOT
 62
               6
100
AcDbLine
 10
173.56711717944322
 20
100.19362452865485
 30
0.0
 11
173.56711717944322
 21
86.193934528657934
 31
0.0
  0
LINE
  5
37D
100
AcDbEntity
  8
Layer00005
  6
DASHDOT
 62
               6
100
AcDbLine
 10
180.5671171794414
 20
93.19377957232669
 30
0.0
 11
166.56711717944231
 21
93.19377957232669
 31
0.0
  0
LINE
  5
37E
100
AcDbEntity
  8
Layer00005
  6
DASHDOT
 62
               6
100
AcDbLine
 10
173.56711717944322
 20
65.193624528654396
 30
0.0
 11
173.56711717944322
 21
51.193934528657479
 31
0.0
  0
LINE
  5
37F
100
AcDbEntity
  8
Layer00005
  6
DASHDOT
 62
               6
100
AcDbLine
 10
180.5671171794414
 20
58.193779572326235
 30
0.0
 11
166.56711717944231
 21
58.193779572326235
 31
0.0
  0
LINE
  5
380
100
AcDbEntity
  8
Layer00005
  6
DASHDOT
 62
               6
100
AcDbLine
 10
191.56711717944322
 20
135.19362452865667
 30
0.0
 11
191.56711717944322
 21
121.19393452865975
 31
0.0
  0
LINE
  5
381
100
AcDbEntity
  8
Layer00005
  6
DASHDOT
 62
               6
100
AcDbLine
 10
198.5671171794414
 20
128.19377957232851
 30
0.0
 11
184.56711717944322
 21
128.19377957232851
 31
0.0
  0
LINE
  5
382
100
AcDbEntity
  8
Layer00005
  6
DASHDOT
 62
               6
100
AcDbLine
 10
191.56711717944231
 20
100.19362452865667
 30
0.0
 11
191.56711717944231
 21
86.193934528659753
 31
0.0
  0
LINE
  5
383
100
AcDbEntity
  8
Layer00005
  6
DASHDOT
 62
               6
100
AcDbLine
 10
198.56711717944049
 20
93.193779572328509
 30
0.0
 11
184.56711717944231
 21
93.193779572328509
 31
0.0
  0
LINE
  5
384
100
AcDbEntity
  8
Layer00005
  6
DASHDOT
 62
               6
100
AcDbLine
 10
191.56711717944231
 20
65.193624528656215
 30
0.0
 11
191.56711717944231
 21
51.193934528659298
 31
0.0
  0
LINE
  5
385
100
AcDbEntity
  8
Layer00005
  6
DASHDOT
 62
               6
100
AcDbLine
 10
198.56711717944049
 20
58.193779572328054
 30
0.0
 11
184.56711717944231
 21
58.193779572328054
 31
0.0
  0
LINE
  5
386
100
AcDbEntity
  8
Layer00005
  6
DASHDOT
 62
               6
100
AcDbLine
 10
248.25803994377051
 20
154.42607173427965
 30
0.0
 11
283.2580399437478
 21
154.42607173428465
 31
0.0
  0
LINE
  5
387
100
AcDbEntity
  8
Layer00005
  6
DASHDOT
 62
               6
100
AcDbLine
 10
265.75803994376054
 20
171.92607173426828
 30
0.0
 11
265.75803994375872
 21
136.9260717342901
 31
0.0
  0
LINE
  5
388
100
AcDbEntity
  8
Layer00005
  6
DASHDOT
 62
               6
100
AcDbLine
 10
294.25804062589793
 20
187.4260717342851
 30
0.0
 11
257.32068812332852
 21
187.4260717342851
 31
0.0
  0
LINE
  5
389
100
AcDbEntity
  8
Layer00005
  6
DASHDOT
 62
               6
100
AcDbLine
 10
294.25804062589793
 20
205.42607173428419
 30
0.0
 11
257.32068812332852
 21
205.42607173428419
 31
0.0
  0
CIRCLE
  5
38A
100
AcDbEntity
  8
Layer00006
  6
Continuous
 62
               7
100
AcDbCircle
 10
107.5671171794414
 20
221.19377957232669
 30
0.0
 40
6.0
  0
CIRCLE
  5
38B
100
AcDbEntity
  8
Layer00006
  6
Continuous
 62
               7
100
AcDbCircle
 10
107.5671171794414
 20
186.19377957232669
 30
0.0
 40
6.0
  0
CIRCLE
  5
38C
100
AcDbEntity
  8
Layer00006
  6
Continuous
 62
               7
100
AcDbCircle
 10
107.5671171794414
 20
151.19377957232624
 30
0.0
 40
6.0
  0
CIRCLE
  5
38D
100
AcDbEntity
  8
Layer00006
  6
Continuous
 62
               7
100
AcDbCircle
 10
89.567117179441397
 20
221.19377957232851
 30
0.0
 40
6.0
  0
CIRCLE
  5
38E
100
AcDbEntity
  8
Layer00006
  6
Continuous
 62
               7
100
AcDbCircle
 10
89.567117179442306
 20
186.19377957232851
 30
0.0
 40
6.0
  0
CIRCLE
  5
38F
100
AcDbEntity
  8
Layer00006
  6
Continuous
 62
               7
100
AcDbCircle
 10
89.567117179442306
 20
151.19377957232805
 30
0.0
 40
6.0
  0
CIRCLE
  5
390
100
AcDbEntity
  8
Layer00006
  6
Continuous
 62
               7
100
AcDbCircle
 10
173.56711717944322
 20
128.19377957232669
 30
0.0
 40
6.0
  0
CIRCLE
  5
391
100
AcDbEntity
  8
Layer00006
  6
Continuous
 62
               7
100
AcDbCircle
 10
173.56711717944322
 20
93.19377957232669
 30
0.0
 40
6.0
  0
CIRCLE
  5
392
100
AcDbEntity
  8
Layer00006
  6
Continuous
 62
               7
100
AcDbCircle
 10
173.56711717944322
 20
58.193779572326235
 30
0.0
 40
6.0
  0
CIRCLE
  5
393
100
AcDbEntity
  8
Layer00006
  6
Continuous
 62
               7
100
AcDbCircle
 10
191.56711717944322
 20
128.19377957232851
 30
0.0
 40
6.0
  0
CIRCLE
  5
394
100
AcDbEntity
  8
Layer00006
  6
Continuous
 62
               7
100
AcDbCircle
 10
191.56711717944231
 20
93.193779572328509
 30
0.0
 40
6.0
  0
CIRCLE
  5
395
100
AcDbEntity
  8
Layer00006
  6
Continuous
 62
               7
100
AcDbCircle
 10
191.56711717944231
 20
58.193779572328054
 30
0.0
 40
6.0
  0
LINE
  5
396
100
AcDbEntity
  8
Layer00007
  6
DIVIDE
 62
               4
100
AcDbLine
 10
247.75803994375505
 20
175.9260720317308
 30
0.0
 11
247.75803994375505
 21
194.42607203173262
 31
0.0
  0
LINE
  5
397
100
AcDbEntity
  8
Layer00007
  6
DIVIDE
 62
               4
100
AcDbLine
 10
249.35804017602945
 20
176.02607203173298
 30
0.0
 11
249.35804017603309
 21
194.42607203173262
 31
0.0
  0
LINE
  5
398
100
AcDbEntity
  8
Layer00007
  6
DIVIDE
 62
               4
100
AcDbLine
 10
271.25803994375508
 20
174.4260720317308
 30
0.0
 11
249.25803994375505
 21
174.4260720317308
 31
0.0
  0
LINE
  5
399
100
AcDbEntity
  8
Layer00007
  6
DIVIDE
 62
               4
100
AcDbLine
 10
249.35804017602945
 20
176.02607203173298
 30
0.0
 11
271.1580397114825
 21
176.02607203173662
 31
0.0
  0
LINE
  5
39A
100
AcDbEntity
  8
Layer00007
  6
DIVIDE
 62
               4
100
AcDbLine
 10
282.35803994375726
 20
179.02607203173298
 30
0.0
 11
341.68697866652781
 21
179.02607203173298
 31
0.0
  0
LINE
  5
39B
100
AcDbEntity
  8
Layer00007
  6
DIVIDE
 62
               4
100
AcDbLine
 10
280.75803994375508
 20
177.4260720317308
 30
0.0
 11
341.68697866652781
 21
177.4260720317308
 31
0.0
  0
LINE
  5
39C
100
AcDbEntity
  8
Layer00007
  6
DIVIDE
 62
               4
100
AcDbLine
 10
300.35803994375544
 20
181.32607203173362
 30
0.0
 11
282.65803994375472
 21
181.32607203173407
 31
0.0
  0
LINE
  5
39D
100
AcDbEntity
  8
Layer00007
  6
DIVIDE
 62
               4
100
AcDbLine
 10
300.35803994375544
 20
235.82607203173407
 30
0.0
 11
300.35803994375544
 21
233.52607203173298
 31
0.0
  0
LINE
  5
39E
100
AcDbEntity
  8
Layer00007
  6
DIVIDE
 62
               4
100
AcDbLine
 10
272.75796085596937
 20
254.02607203173343
 30
0.0
 11
287.78189523323033
 21
254.02607203173343
 31
0.0
  0
LINE
  5
39F
100
AcDbEntity
  8
Layer00007
  6
DIVIDE
 62
               4
100
AcDbLine
 10
285.75803994375872
 20
237.42607203173262
 30
0.0
 11
274.75803994375872
 21
237.42607203173262
 31
0.0
  0
LINE
  5
3A0
100
AcDbEntity
  8
Layer00007
  6
DIVIDE
 62
               4
100
AcDbLine
 10
289.35803994375726
 20
262.42215669567543
 30
0.0
 11
289.35803994375726
 21
244.02607203173662
 31
0.0
  0
LINE
  5
3A1
100
AcDbEntity
  8
Layer00007
  6
DIVIDE
 62
               4
100
AcDbLine
 10
287.75803994375872
 20
252.42607203173671
 30
0.0
 11
287.75803994375872
 21
243.92607203173262
 31
0.0
  0
LINE
  5
3A2
100
AcDbEntity
  8
Layer00007
  6
DIVIDE
 62
               4
100
AcDbLine
 10
290.95803994375945
 20
262.42215669567543
 30
0.0
 11
290.95803994375945
 21
244.02607203173662
 31
0.0
  0
LINE
  5
3A3
100
AcDbEntity
  8
Layer00007
  6
DIVIDE
 62
               4
100
AcDbLine
 10
287.75803994375872
 20
243.92607203173262
 30
0.0
 11
287.75803994375872
 21
239.42607203173262
 31
0.0
  0
LINE
  5
3A4
100
AcDbEntity
  8
Layer00007
  6
DIVIDE
 62
               4
100
AcDbLine
 10
286.1770872168812
 20
237.47064252321084
 30
0.0
 11
287.71346945227867
 21
239.00702475860831
 31
0.0
  0
LINE
  5
3A5
100
AcDbEntity
  8
Layer00007
  6
DIVIDE
 62
               4
100
AcDbLine
 10
280.82921586650389
 20
237.42607203173262
 30
0.0
 11
287.75803994375872
 21
244.35489610898745
 31
0.0
  0
LINE
  5
3A6
100
AcDbEntity
  8
Layer00007
  6
DIVIDE
 62
               4
100
AcDbLine
 10
275.52591500760479
 20
237.42607203173262
 30
0.0
 11
287.75803994375872
 21
249.65819696788745
 31
0.0
  0
LINE
  5
3A7
100
AcDbEntity
  8
Layer00007
  6
DIVIDE
 62
               4
100
AcDbLine
 10
272.7580399437569
 20
239.96149782678563
 30
0.0
 11
285.22261414870934
 21
252.42607203173671
 31
0.0
  0
LINE
  5
3A8
100
AcDbEntity
  8
Layer00007
  6
DIVIDE
 62
               4
100
AcDbLine
 10
272.75803994375872
 20
245.26479868568472
 30
0.0
 11
279.91931328981025
 21
252.42607203173671
 31
0.0
  0
LINE
  5
3A9
100
AcDbEntity
  8
Layer00007
  6
DIVIDE
 62
               4
100
AcDbLine
 10
272.75803994375872
 20
250.56809954458473
 30
0.0
 11
274.61601243091116
 21
252.42607203173671
 31
0.0
  0
LINE
  5
3AA
100
AcDbEntity
  8
Layer00007
  6
DIVIDE
 62
               4
100
AcDbLine
 10
287.75803994376054
 20
249.53316364870003
 30
0.0
 11
284.8651315607234
 21
252.42607203173671
 31
0.0
  0
LINE
  5
3AB
100
AcDbEntity
  8
Layer00007
  6
DIVIDE
 62
               4
100
AcDbLine
 10
287.75803994376054
 20
244.22986278980002
 30
0.0
 11
279.56183070182431
 21
252.42607203173671
 31
0.0
  0
LINE
  5
3AC
100
AcDbEntity
  8
Layer00007
  6
DIVIDE
 62
               4
100
AcDbLine
 10
287.70686075788342
 20
238.97774111677805
 30
0.0
 11
274.25852984292521
 21
252.42607203173671
 31
0.0
  0
LINE
  5
3AD
100
AcDbEntity
  8
Layer00007
  6
DIVIDE
 62
               4
100
AcDbLine
 10
283.95522898402976
 20
237.42607203173262
 30
0.0
 11
272.75803994375872
 21
248.62326107200275
 31
0.0
  0
LINE
  5
3AE
100
AcDbEntity
  8
Layer00007
  6
DIVIDE
 62
               4
100
AcDbLine
 10
278.65192812513067
 20
237.42607203173262
 30
0.0
 11
272.75803994375872
 21
243.31996021310457
 31
0.0
  0
LINE
  5
3AF
100
AcDbEntity
  8
Layer00007
  6
DIVIDE
 62
               4
100
AcDbLine
 10
272.75803994375872
 20
252.42607203173671
 30
0.0
 11
287.75803994375872
 21
252.42607203173671
 31
0.0
  0
LINE
  5
3B0
100
AcDbEntity
  8
Layer00007
  6
DIVIDE
 62
               4
100
AcDbLine
 10
282.35803994375726
 20
235.82607203173407
 30
0.0
 11
341.68697866652781
 21
235.82607203173407
 31
0.0
  0
LINE
  5
3B1
100
AcDbEntity
  8
Layer00007
  6
DIVIDE
 62
               4
100
AcDbLine
 10
280.75803994375508
 20
237.42607203173262
 30
0.0
 11
341.68697866652781
 21
237.42607203173262
 31
0.0
  0
LINE
  5
3B2
100
AcDbEntity
  8
Layer00007
  6
DIVIDE
 62
               4
100
AcDbLine
 10
280.35803994375726
 20
233.82607203173407
 30
0.0
 11
280.35803994375726
 21
181.02607203173298
 31
0.0
  0
LINE
  5
3B3
100
AcDbEntity
  8
Layer00007
  6
DIVIDE
 62
               4
100
AcDbLine
 10
282.65803994375472
 20
233.52607203173298
 30
0.0
 11
282.65803994375472
 21
181.32607203173407
 31
0.0
  0
LINE
  5
3B4
100
AcDbEntity
  8
Layer00007
  6
DIVIDE
 62
               4
100
AcDbLine
 10
282.65803994375472
 20
233.52607203173298
 30
0.0
 11
300.35803994375544
 21
233.52607203173298
 31
0.0
  0
LINE
  5
3B5
100
AcDbEntity
  8
Layer00007
  6
DIVIDE
 62
               4
100
AcDbLine
 10
278.75803994375508
 20
235.42607203173262
 30
0.0
 11
278.75803994375508
 21
219.42607173428237
 31
0.0
  0
LINE
  5
3B6
100
AcDbEntity
  8
Layer00007
  6
DIVIDE
 62
               4
100
AcDbLine
 10
271.1580397114825
 20
252.42607203173671
 30
0.0
 11
271.1580397114825
 21
176.02607203173662
 31
0.0
  0
LINE
  5
3B7
100
AcDbEntity
  8
Layer00007
  6
DIVIDE
 62
               4
100
AcDbLine
 10
265.25803994375599
 20
221.02607203173525
 30
0.0
 11
265.25803994375508
 21
176.02607203173662
 31
0.0
  0
LINE
  5
3B8
100
AcDbEntity
  8
Layer00007
  6
DIVIDE
 62
               4
100
AcDbLine
 10
272.75803994375508
 20
252.42607203173671
 30
0.0
 11
272.75803994375508
 21
175.9260720317308
 31
0.0
  0
ARC
  5
3B9
100
AcDbEntity
  8
Layer00007
  6
DIVIDE
 62
               4
100
AcDbCircle
 10
280.75803994375508
 20
179.42607203173444
 30
0.0
 40
2.0
100
AcDbArc
 50
180.0
 51
270.0
  0
ARC
  5
3BA
100
AcDbEntity
  8
Layer00007
  6
DIVIDE
 62
               4
100
AcDbCircle
 10
282.35803994375726
 20
181.02607203173298
 30
0.0
 40
2.0
100
AcDbArc
 50
180.0
 51
270.0
  0
ARC
  5
3BB
100
AcDbEntity
  8
Layer00007
  6
DIVIDE
 62
               4
100
AcDbCircle
 10
249.25803994375505
 20
175.9260720317308
 30
0.0
 40
1.5
100
AcDbArc
 50
180.0
 51
270.0
  0
ARC
  5
3BC
100
AcDbEntity
  8
Layer00007
  6
DIVIDE
 62
               4
100
AcDbCircle
 10
271.25803994375508
 20
175.9260720317308
 30
0.0
 40
1.5
100
AcDbArc
 50
270.0
 51
0.0
  0
ARC
  5
3BD
100
AcDbEntity
  8
Layer00007
  6
DIVIDE
 62
               4
100
AcDbCircle
 10
280.75803994375508
 20
235.42607203173262
 30
0.0
 40
2.0
100
AcDbArc
 50
90.000000000000028
 51
180.0
  0
ARC
  5
3BE
100
AcDbEntity
  8
Layer00007
  6
DIVIDE
 62
               4
100
AcDbCircle
 10
272.75803971148105
 20
252.42607203173671
 30
0.0
 40
1.6000000000000001
100
AcDbArc
 50
90.000000000000028
 51
180.00000000000023
  0
ARC
  5
3BF
100
AcDbEntity
  8
Layer00007
  6
DIVIDE
 62
               4
100
AcDbCircle
 10
285.75803994375872
 20
239.42607203173262
 30
0.0
 40
2.0
100
AcDbArc
 50
270.0
 51
0.0
  0
ARC
  5
3C0
100
AcDbEntity
  8
Layer00007
  6
DIVIDE
 62
               4
100
AcDbCircle
 10
274.75803994375872
 20
239.42607203173262
 30
0.0
 40
2.0
100
AcDbArc
 50
180.0
 51
270.0
  0
ARC
  5
3C1
100
AcDbEntity
  8
Layer00007
  6
DIVIDE
 62
               4
100
AcDbCircle
 10
289.35803994375726
 20
244.02607203173662
 30
0.0
 40
1.6000000000000001
100
AcDbArc
 50
180.0
 51
0.0
  0
ARC
  5
3C2
100
AcDbEntity
  8
Layer00007
  6
DIVIDE
 62
               4
100
AcDbCircle
 10
287.75803994375872
 20
252.42607203173671
 30
0.0
 40
1.6000000000000001
100
AcDbArc
 50
0.0
 51
90.000000000000028
  0
ARC
  5
3C3
100
AcDbEntity
  8
Layer00007
  6
DIVIDE
 62
               4
100
AcDbCircle
 10
282.35803994375726
 20
233.82607203173407
 30
0.0
 40
2.0
100
AcDbArc
 50
90.000000000000028
 51
180.0
  0
LINE
  5
3C4
100
AcDbEntity
  8
Layer00008
  6
Continuous
 62
               3
100
AcDbLine
 10
128.06711717944503
 20
69.45751989877013
 30
0.0
 11
128.06711717944503
 21
62.19377957232669
 31
0.0
  0
TEXT
  5
3C5
100
AcDbEntity
  8
Layer00009
 62
               7
100
AcDbText
 10
39.702428372439812
 20
6.9409591302338924
 30
0.0
 40
3.0
  1
いわきエンジニアリング株式会社
 72
               5
 11
84.702428372439812
 21
6.9409591302338924
 31
0.0
100
AcDbText
  0
TEXT
  5
3C6
100
AcDbEntity
  8
Layer00009
 62
               7
100
AcDbText
 10
179.70242837243981
 20
10.690959130234347
 30
0.0
 40
1.499999999999545
  1
名称
 41
1.0000000000003033
 72
               5
 11
182.70242837243981
 21
10.690959130234347
 31
0.0
100
AcDbText
  0
TEXT
  5
3C7
100
AcDbEntity
  8
Layer00009
 62
               7
100
AcDbText
 10
254.70242837243981
 20
10.690959130233438
 30
0.0
 40
1.5000000000006819
  1
材料・仕上
 41
0.9999999999995454
 72
               5
 11
262.20242837243984
 21
10.690959130233438
 31
0.0
100
AcDbText
  0
TEXT
  5
3C8
100
AcDbEntity
  8
Layer00009
 62
               7
100
AcDbText
 10
359.70242837243984
 20
10.690959130234347
 30
0.0
 40
1.499999999999545
  1
縮尺
 41
1.0000000000003033
 72
               5
 11
362.70242837243984
 21
10.690959130234347
 31
0.0
100
AcDbText
  0
TEXT
  5
3C9
100
AcDbEntity
  8
Layer00009
 62
               7
100
AcDbText
 10
329.70242837243984
 20
10.690959130233892
 30
0.0
 40
1.4999999999997731
  1
製品重量
 41
1.0000000000001512
 72
               5
 11
335.70242837243984
 21
10.690959130233892
 31
0.0
100
AcDbText
  0
TEXT
  5
3CA
100
AcDbEntity
  8
Layer00009
 62
               7
100
AcDbText
 10
104.70242837243981
 20
10.690959130233892
 30
0.0
 40
1.5000000000002269
  1
形式
 41
0.9999999999998487
 72
               5
 11
107.70242837243981
 21
10.690959130233892
 31
0.0
100
AcDbText
  0
TEXT
  5
3CB
100
AcDbEntity
  8
Layer00009
 62
               7
100
AcDbText
 10
184.70242837243981
 20
6.9409591302338924
 30
0.0
 40
3.0
  1
　　　　ソリッドヒンジ
 72
               5
 11
217.70242837243981
 21
6.9409591302338924
 31
0.0
100
AcDbText
  0
TEXT
  5
3CC
100
AcDbEntity
  8
Layer00009
 62
               7
100
AcDbText
 10
364.70242837243984
 20
6.9409591302338924
 30
0.0
 40
2.9999999999997731
  1
１：１
 41
1.0000000000000757
 72
               5
 11
373.70242837243984
 21
6.9409591302338924
 31
0.0
100
AcDbText
  0
TEXT
  5
3CD
100
AcDbEntity
  8
Layer00009
 62
               7
100
AcDbText
 10
109.70242837243981
 20
6.9409591302338924
 30
0.0
 40
3.0000000000002269
  1
　　　ＫＪ－５
 41
0.9999999999999244
 72
               5
 11
130.70242837243981
 21
6.9409591302338924
 31
0.0
100
AcDbText
  0
TEXT
  5
3CE
100
AcDbEntity
  8
Layer00009
 62
               3
100
AcDbText
 10
269.67467012119539
 20
38.863326796426151
 30
0.0
 40
2.5000000000004552
  1
  
 41
1.4999999999997269
 72
               5
 11
273.42467012119539
 21
38.863326796426151
 31
0.0
100
AcDbText
  0
TEXT
  5
3CF
100
AcDbEntity
  8
Layer00009
 62
               3
100
AcDbText
 10
271.49610929018615
 20
51.995455876737793
 30
0.0
 40
2.5
  1
  ① 上部のキャップをはずします。
 41
1.0833333333333335
 72
               5
 11
316.18360929018615
 21
51.995455876737793
 31
0.0
100
AcDbText
  0
TEXT
  5
3D0
100
AcDbEntity
  8
Layer00009
 62
               3
100
AcDbText
 10
271.49610929018615
 20
44.995455876737793
 30
0.0
 40
2.5000000000002269
  1
  ③ バールなどで扉を上げます。
 41
1.0882352941175648
 72
               5
 11
313.66522693724562
 21
44.995455876737793
 31
0.0
100
AcDbText
  0
TEXT
  5
3D1
100
AcDbEntity
  8
Layer00009
 62
               3
100
AcDbText
 10
271.49610929018615
 20
41.495455876737793
 30
0.0
 40
2.5
  1
　④ 調整ネジを六角レンチで右回転させると扉が上がります。(最大６ｍｍ)
 41
1.0416666666666667
 72
               5
 11
361.33985929018615
 21
41.495455876737793
 31
0.0
100
AcDbText
  0
TEXT
  5
3D2
100
AcDbEntity
  8
Layer00009
 62
               3
100
AcDbText
 10
271.49610929018615
 20
38.995455876737793
 30
0.0
 40
2.5
  1
 　 　　　　　　　　　　　 左回転させると扉が下がります。(最大２ｍｍ)
 41
1.0675675675675653
 72
               5
 11
363.57381199288864
 21
38.995455876737793
 31
0.0
100
AcDbText
  0
TEXT
  5
3D3
100
AcDbEntity
  8
Layer00009
 62
               3
100
AcDbText
 10
271.49610929018615
 20
31.995455876737793
 30
0.0
 40
2.5
  1
  ⑥ 上部のキャップを取付けて、完了です。
 41
1.0681818181818148
 72
               5
 11
326.24042747200417
 21
31.995455876737793
 31
0.0
100
AcDbText
  0
TEXT
  5
3D4
100
AcDbEntity
  8
Layer00009
 62
               3
100
AcDbText
 10
271.49610929018615
 20
48.495455876738248
 30
0.0
 40
2.4999999999995448
  1
  ② 扉を90°開し、固定ネジを緩めます。
 41
1.1071428571430668
 72
               5
 11
325.46932357590083
 21
48.495455876738248
 31
0.0
100
AcDbText
  0
TEXT
  5
3D5
100
AcDbEntity
  8
Layer00009
 62
               3
100
AcDbText
 10
271.49610929018615
 20
35.495455876738248
 30
0.0
 40
2.4999999999995448
  1
  ⑤ 調整後固定ネジを締めます。
 41
1.0750000000001958
 72
               5
 11
313.15235929018615
 21
35.495455876738248
 31
0.0
100
AcDbText
  0
TEXT
  5
3D6
100
AcDbEntity
  8
Layer00009
 62
               7
100
AcDbText
 10
338.93783382724484
 20
166.0130629996294
 30
0.0
 40
2.9999999999997731
  1
高さ調整方法
 41
1.0000000000000757
 72
               5
 11
356.93783382724484
 21
166.0130629996294
 31
0.0
100
AcDbText
  0
TEXT
  5
3D7
100
AcDbEntity
  8
Layer00009
 62
               7
100
AcDbText
 10
259.70242837243984
 20
6.9409591302338924
 30
0.0
 40
3.0
  1
　　ステンレス　電解研磨
 72
               5
 11
295.70242837243984
 21
6.9409591302338924
 31
0.0
100
AcDbText
  0
TEXT
  5
3D8
100
AcDbEntity
  8
Layer00009
 62
               7
100
AcDbText
 10
319.56388601298784
 20
15.127191064411505
 30
0.0
 40
5.0
  1
本図は左勝手(ＬＨ)を示す。
 72
               5
 11
384.56388601298784
 21
15.127191064411505
 31
0.0
100
AcDbText
  0
TEXT
  5
3D9
100
AcDbEntity
  8
Layer00009
 62
               7
100
AcDbText
 10
34.591408059393274
 20
13.895785529723213
 30
0.0
 40
3.5
  1
＊ 予告なく外観・仕様を変更する場合がございます。
 72
               5
 11
120.34140805939327
 21
13.895785529723213
 31
0.0
100
AcDbText
  0
TEXT
  5
3DA
100
AcDbEntity
  8
Layer00009
 62
               7
100
AcDbText
 10
34.591408059393274
 20
18.395785529723213
 30
0.0
 40
3.5
  1
＊ 耐荷重は扉サイズ W:H=1:2 を基準とし　2枚吊:160kg 3枚吊:240kg　＊使用している部材は無給油ブッシュなどを含め、防火対応です。
 72
               5
 11
253.34140805939327
 21
18.395785529723213
 31
0.0
100
AcDbText
  0
TEXT
  5
3DB
100
AcDbEntity
  8
Layer00009
 62
               7
100
AcDbText
 10
215.44686394658433
 20
274.12875402913789
 30
0.0
 40
5.0
  1
ＫＪ-５　｛実用新案登録 済｝
 72
               5
 11
282.94686394658436
 21
274.12875402913789
 31
0.0
100
AcDbText
  0
LINE
  5
3DC
100
AcDbEntity
  8
Layer00010
  6
DASHED
 62
               7
100
AcDbLine
 10
144.5671171794414
 20
213.19377957232669
 30
0.0
 11
145.5671171794414
 21
212.19377957232669
 31
0.0
  0
LINE
  5
3DD
100
AcDbEntity
  8
Layer00010
  6
DASHED
 62
               7
100
AcDbLine
 10
136.5671171794414
 20
213.19377957232669
 30
0.0
 11
135.5671171794414
 21
212.19377957232669
 31
0.0
  0
LINE
  5
3DE
100
AcDbEntity
  8
Layer00010
  6
DASHED
 62
               7
100
AcDbLine
 10
136.5671171794414
 20
213.19377957232669
 30
0.0
 11
144.5671171794414
 21
213.19377957232669
 31
0.0
  0
LINE
  5
3DF
100
AcDbEntity
  8
Layer00010
  6
DASHED
 62
               7
100
AcDbLine
 10
135.5671171794414
 20
212.19377957232669
 30
0.0
 11
145.5671171794414
 21
212.19377957232669
 31
0.0
  0
LINE
  5
3E0
100
AcDbEntity
  8
Layer00010
  6
DASHED
 62
               7
100
AcDbLine
 10
145.5671171794414
 20
189.19377957232669
 30
0.0
 11
144.5671171794414
 21
188.19377957232669
 31
0.0
  0
LINE
  5
3E1
100
AcDbEntity
  8
Layer00010
  6
DASHED
 62
               7
100
AcDbLine
 10
135.5671171794414
 20
189.19377957232669
 30
0.0
 11
136.5671171794414
 21
188.19377957232669
 31
0.0
  0
LINE
  5
3E2
100
AcDbEntity
  8
Layer00010
  6
DASHED
 62
               7
100
AcDbLine
 10
136.5671171794414
 20
188.19377957232669
 30
0.0
 11
144.5671171794414
 21
188.19377957232669
 31
0.0
  0
LINE
  5
3E3
100
AcDbEntity
  8
Layer00010
  6
DASHED
 62
               7
100
AcDbLine
 10
135.5671171794414
 20
189.19377957232669
 30
0.0
 11
145.5671171794414
 21
189.19377957232669
 31
0.0
  0
LINE
  5
3E4
100
AcDbEntity
  8
Layer00010
  6
DASHED
 62
               7
100
AcDbLine
 10
145.5671171794414
 20
189.19377957232669
 30
0.0
 11
145.5671171794414
 21
231.19377957232669
 31
0.0
  0
LINE
  5
3E5
100
AcDbEntity
  8
Layer00010
  6
DASHED
 62
               7
100
AcDbLine
 10
135.5671171794414
 20
189.19377957232669
 30
0.0
 11
135.5671171794414
 21
231.19377957232669
 31
0.0
  0
LINE
  5
3E6
100
AcDbEntity
  8
Layer00010
  6
DASHED
 62
               7
100
AcDbLine
 10
131.02037352548663
 20
253.18802084502536
 30
0.0
 11
131.02188718329248
 21
253.89664128401878
 31
0.0
  0
LINE
  5
3E7
100
AcDbEntity
  8
Layer00010
  6
DASHED
 62
               7
100
AcDbLine
 10
135.26452787041066
 20
257.43217518995255
 30
0.0
 11
131.02037352548663
 21
253.18802084502536
 31
0.0
  0
LINE
  5
3E8
100
AcDbEntity
  8
Layer00010
  6
DASHED
 62
               7
100
AcDbLine
 10
133.8488006502333
 20
250.35959372027961
 30
0.0
 11
134.55742108922581
 21
250.36110737808681
 31
0.0
  0
LINE
  5
3E9
100
AcDbEntity
  8
Layer00010
  6
DASHED
 62
               7
100
AcDbLine
 10
138.09295499515733
 20
254.60374806520682
 30
0.0
 11
133.8488006502333
 21
250.35959372027961
 31
0.0
  0
LINE
  5
3EA
100
AcDbEntity
  8
Layer00010
  6
DASHED
 62
               7
100
AcDbLine
 10
133.8488006502333
 20
250.35959372027961
 30
0.0
 11
131.02037352548663
 21
253.18802084502536
 31
0.0
  0
LINE
  5
3EB
100
AcDbEntity
  8
Layer00010
  6
DASHED
 62
               7
100
AcDbLine
 10
134.55742108922581
 20
250.36110737808681
 30
0.0
 11
131.02188718329248
 21
253.89664128401878
 31
0.0
  0
LINE
  5
3EC
100
AcDbEntity
  8
Layer00010
  6
DASHED
 62
               7
100
AcDbLine
 10
134.55742108922399
 20
257.43217518995255
 30
0.0
 11
131.02188718329248
 21
253.89664128401878
 31
0.0
  0
LINE
  5
3ED
100
AcDbEntity
  8
Layer00010
  6
DASHED
 62
               7
100
AcDbLine
 10
138.09295499515733
 20
253.89664128402015
 30
0.0
 11
134.55742108922581
 21
250.36110737808681
 31
0.0
  0
LINE
  5
3EE
100
AcDbEntity
  8
Layer00010
  6
DASHED
 62
               7
100
AcDbLine
 10
138.09295499515733
 20
254.60374806520682
 30
0.0
 11
135.26452787041066
 21
257.43217518995255
 31
0.0
  0
LINE
  5
3EF
100
AcDbEntity
  8
Layer00010
  6
DASHED
 62
               7
100
AcDbLine
 10
138.09295499515733
 20
254.60374806520682
 30
0.0
 11
138.09295499515733
 21
253.89664128402015
 31
0.0
  0
LINE
  5
3F0
100
AcDbEntity
  8
Layer00010
  6
DASHED
 62
               7
100
AcDbLine
 10
138.09295499515733
 20
253.89664128402015
 30
0.0
 11
134.55742108922399
 21
257.43217518995255
 31
0.0
  0
LINE
  5
3F1
100
AcDbEntity
  8
Layer00010
  6
DASHED
 62
               7
100
AcDbLine
 10
135.26452787041066
 20
257.43217518995255
 30
0.0
 11
134.55742108922399
 21
257.43217518995255
 31
0.0
  0
LINE
  5
3F2
100
AcDbEntity
  8
Layer00010
  6
DASHED
 62
               7
100
AcDbLine
 10
134.55742108922581
 20
250.36110737808681
 30
0.0
 11
133.6830976757968
 21
249.48678396465689
 31
0.0
  0
LINE
  5
3F3
100
AcDbEntity
  8
Layer00010
  6
DASHED
 62
               7
100
AcDbLine
 10
131.02188718329248
 20
253.89664128401878
 30
0.0
 11
130.14726059610743
 21
253.02201469683328
 31
0.0
  0
LINE
  5
3F4
100
AcDbEntity
  8
Layer00010
  6
DASHED
 62
               7
100
AcDbLine
 10
133.8488006502333
 20
250.35959372027961
 30
0.0
 11
133.26200905963501
 21
249.77280212968176
 31
0.0
  0
LINE
  5
3F5
100
AcDbEntity
  8
Layer00010
  6
DASHED
 62
               7
100
AcDbLine
 10
131.02037352548663
 20
253.18802084502536
 30
0.0
 11
130.43358193488834
 21
252.60122925442752
 31
0.0
  0
LINE
  5
3F6
100
AcDbEntity
  8
Layer00010
  6
DASHED
 62
               7
100
AcDbLine
 10
136.5671171794414
 20
188.19377957232669
 30
0.0
 11
136.5671171794414
 21
231.19377957232669
 31
0.0
  0
LINE
  5
3F7
100
AcDbEntity
  8
Layer00010
  6
DASHED
 62
               7
100
AcDbLine
 10
144.5671171794414
 20
188.19377957232669
 30
0.0
 11
144.5671171794414
 21
231.19377957232669
 31
0.0
  0
LINE
  5
3F8
100
AcDbEntity
  8
Layer00010
  6
DASHED
 62
               7
100
AcDbLine
 10
132.97593025981709
 20
203.19478599960181
 30
0.0
 11
137.38578757896479
 21
203.1947859996009
 31
0.0
  0
LINE
  5
3F9
100
AcDbEntity
  8
Layer00010
  6
DASHED
 62
               7
100
AcDbLine
 10
132.97593025940236
 20
199.19478599960271
 30
0.0
 11
137.38578757896479
 21
199.19478599960271
 31
0.0
  0
LINE
  5
3FA
100
AcDbEntity
  8
Layer00010
  6
DASHED
 62
               7
100
AcDbLine
 10
131.91517913595212
 20
198.69478599960226
 30
0.0
 11
136.5671171794414
 21
198.69478599960226
 31
0.0
  0
LINE
  5
3FB
100
AcDbEntity
  8
Layer00010
  6
DASHED
 62
               7
100
AcDbLine
 10
131.91517913595212
 20
203.69478599960226
 30
0.0
 11
136.51049285241638
 21
203.69478599960226
 31
0.0
  0
LINE
  5
3FC
100
AcDbEntity
  8
Layer00010
  6
DASHED
 62
               7
100
AcDbLine
 10
259.03830011144635
 20
163.97281538823714
 30
0.0
 11
259.74692055043977
 21
163.97130173043084
 31
0.0
  0
LINE
  5
3FD
100
AcDbEntity
  8
Layer00010
  6
DASHED
 62
               7
100
AcDbLine
 10
263.2824544563731
 20
159.72866104331266
 30
0.0
 11
259.03830011144635
 21
163.97281538823714
 31
0.0
  0
LINE
  5
3FE
100
AcDbEntity
  8
Layer00010
  6
DASHED
 62
               7
100
AcDbLine
 10
256.20987298670059
 20
161.14438826349047
 30
0.0
 11
256.21138664450825
 21
160.4357678244975
 31
0.0
  0
LINE
  5
3FF
100
AcDbEntity
  8
Layer00010
  6
DASHED
 62
               7
100
AcDbLine
 10
260.45402733162825
 20
156.90023391856553
 30
0.0
 11
256.20987298670059
 21
161.14438826349047
 31
0.0
  0
LINE
  5
400
100
AcDbEntity
  8
Layer00010
  6
DASHED
 62
               7
100
AcDbLine
 10
256.20987298670059
 20
161.14438826349047
 30
0.0
 11
259.03830011144635
 21
163.97281538823714
 31
0.0
  0
LINE
  5
401
100
AcDbEntity
  8
Layer00010
  6
DASHED
 62
               7
100
AcDbLine
 10
256.21138664450825
 20
160.4357678244975
 30
0.0
 11
259.74692055043977
 21
163.97130173043084
 31
0.0
  0
LINE
  5
402
100
AcDbEntity
  8
Layer00010
  6
DASHED
 62
               7
100
AcDbLine
 10
263.2824544563731
 20
160.43576782449887
 30
0.0
 11
259.74692055043977
 21
163.97130173043084
 31
0.0
  0
LINE
  5
403
100
AcDbEntity
  8
Layer00010
  6
DASHED
 62
               7
100
AcDbLine
 10
259.74692055044159
 20
156.90023391856553
 30
0.0
 11
256.21138664450825
 21
160.4357678244975
 31
0.0
  0
LINE
  5
404
100
AcDbEntity
  8
Layer00010
  6
DASHED
 62
               7
100
AcDbLine
 10
260.45402733162825
 20
156.90023391856553
 30
0.0
 11
263.2824544563731
 21
159.72866104331266
 31
0.0
  0
LINE
  5
405
100
AcDbEntity
  8
Layer00010
  6
DASHED
 62
               7
100
AcDbLine
 10
260.45402733162825
 20
156.90023391856553
 30
0.0
 11
259.74692055044159
 21
156.90023391856553
 31
0.0
  0
LINE
  5
406
100
AcDbEntity
  8
Layer00010
  6
DASHED
 62
               7
100
AcDbLine
 10
259.74692055044159
 20
156.90023391856553
 30
0.0
 11
263.2824544563731
 21
160.43576782449887
 31
0.0
  0
LINE
  5
407
100
AcDbEntity
  8
Layer00010
  6
DASHED
 62
               7
100
AcDbLine
 10
263.2824544563731
 20
159.72866104331266
 30
0.0
 11
263.2824544563731
 21
160.43576782449887
 31
0.0
  0
LINE
  5
408
100
AcDbEntity
  8
Layer00010
  6
DASHED
 62
               7
100
AcDbLine
 10
256.21138664450825
 20
160.4357678244975
 30
0.0
 11
255.33706323107739
 21
161.31009123792651
 31
0.0
  0
LINE
  5
409
100
AcDbEntity
  8
Layer00010
  6
DASHED
 62
               7
100
AcDbLine
 10
259.74692055043977
 20
163.97130173043084
 30
0.0
 11
258.87229396325472
 21
164.84592831761589
 31
0.0
  0
LINE
  5
40A
100
AcDbEntity
  8
Layer00010
  6
DASHED
 62
               7
100
AcDbLine
 10
256.20987298670059
 20
161.14438826349047
 30
0.0
 11
255.62308139610317
 21
161.73117985408831
 31
0.0
  0
LINE
  5
40B
100
AcDbEntity
  8
Layer00010
  6
DASHED
 62
               7
100
AcDbLine
 10
259.03830011144635
 20
163.97281538823714
 30
0.0
 11
258.45150852084896
 21
164.55960697883498
 31
0.0
  0
LINE
  5
40C
100
AcDbEntity
  8
Layer00010
  6
DASHED
 62
               7
100
AcDbLine
 10
134.06711717943958
 20
184.19377957232669
 30
0.0
 11
147.06711717944322
 21
184.19377957232669
 31
0.0
  0
LINE
  5
40D
100
AcDbEntity
  8
Layer00010
  6
DASHED
 62
               7
100
AcDbLine
 10
133.5671171794414
 20
183.69377957232533
 30
0.0
 11
134.06711717943958
 21
184.19377957232669
 31
0.0
  0
LINE
  5
40E
100
AcDbEntity
  8
Layer00010
  6
DASHED
 62
               7
100
AcDbLine
 10
147.5671171794414
 20
183.69377957232624
 30
0.0
 11
147.06711717944322
 21
184.19377957232669
 31
0.0
  0
LINE
  5
40F
100
AcDbEntity
  8
Layer00010
  6
DASHED
 62
               7
100
AcDbLine
 10
147.5671171794414
 20
141.19377957232669
 30
0.0
 11
147.5671171794414
 21
183.69377957232669
 31
0.0
  0
LINE
  5
410
100
AcDbEntity
  8
Layer00010
  6
Continuous
 62
               7
100
AcDbLine
 10
147.5671171794414
 20
141.19377957232669
 30
0.0
 11
147.5671171794414
 21
140.19377957232669
 31
0.0
  0
LINE
  5
411
100
AcDbEntity
  8
Layer00010
  6
DASHED
 62
               7
100
AcDbLine
 10
133.5671171794414
 20
141.19377957232669
 30
0.0
 11
133.5671171794414
 21
183.69377957232442
 31
0.0
  0
LINE
  5
412
100
AcDbEntity
  8
Layer00010
  6
Continuous
 62
               7
100
AcDbLine
 10
133.5671171794414
 20
141.19377957232669
 30
0.0
 11
133.5671171794414
 21
138.19377957232669
 31
0.0
  0
CIRCLE
  5
413
100
AcDbEntity
  8
Layer00010
  6
DASHED
 62
               7
100
AcDbCircle
 10
140.5671171794414
 20
183.19377957232669
 30
0.0
 40
5.0
  0
LINE
  5
414
100
AcDbEntity
  8
Layer00011
  6
DASHED
 62
               7
100
AcDbLine
 10
104.56712245185494
 20
271.40776018300232
 30
0.0
 11
110.56712245185676
 21
271.40776018300232
 31
0.0
  0
LINE
  5
415
100
AcDbEntity
  8
Layer00011
  6
DASHED
 62
               7
100
AcDbLine
 10
101.5671171794414
 20
267.80775053875107
 30
0.0
 11
104.56712245185494
 21
271.40776018300232
 31
0.0
  0
LINE
  5
416
100
AcDbEntity
  8
Layer00011
  6
DASHED
 62
               7
100
AcDbLine
 10
109.56712245185676
 20
271.40776018300232
 30
0.0
 11
104.56712245185494
 21
271.40776018300232
 31
0.0
  0
LINE
  5
417
100
AcDbEntity
  8
Layer00011
  6
DASHED
 62
               7
100
AcDbLine
 10
113.5671171794414
 20
267.40776314221068
 30
0.0
 11
113.5671171794414
 21
267.80775476619522
 31
0.0
  0
LINE
  5
418
100
AcDbEntity
  8
Layer00011
  6
DASHED
 62
               7
100
AcDbLine
 10
101.56712140688373
 20
267.80775476619522
 30
0.0
 11
113.5671171794414
 21
267.80775476619522
 31
0.0
  0
LINE
  5
419
100
AcDbEntity
  8
Layer00011
  6
DASHED
 62
               7
100
AcDbLine
 10
113.5671171794414
 20
267.80775476619522
 30
0.0
 11
110.5671171794414
 21
271.40776018300232
 31
0.0
  0
LINE
  5
41A
100
AcDbEntity
  8
Layer00011
  6
DASHED
 62
               7
100
AcDbLine
 10
101.5671171794414
 20
267.40775891476835
 30
0.0
 11
113.5671171794414
 21
267.40776314221068
 31
0.0
  0
LINE
  5
41B
100
AcDbEntity
  8
Layer00011
  6
DASHED
 62
               7
100
AcDbLine
 10
101.5671171794414
 20
267.40775891476835
 30
0.0
 11
101.5671171794414
 21
267.80775053875107
 31
0.0
  0
LINE
  5
41C
100
AcDbEntity
  8
Layer00011
  6
DASHED
 62
               7
100
AcDbLine
 10
104.56712212231773
 20
272.40776067733452
 30
0.0
 11
104.56712245185494
 21
271.40776018300232
 31
0.0
  0
LINE
  5
41D
100
AcDbEntity
  8
Layer00011
  6
DASHED
 62
               7
100
AcDbLine
 10
110.56712193812595
 20
272.40776067733407
 30
0.0
 11
110.56712225537316
 21
271.40775409187438
 31
0.0
  0
LINE
  5
41E
100
AcDbEntity
  8
Layer00011
  6
DASHED
 62
               7
100
AcDbLine
 10
86.567122451854942
 20
271.4077601830046
 30
0.0
 11
92.567122451856761
 21
271.4077601830046
 31
0.0
  0
LINE
  5
41F
100
AcDbEntity
  8
Layer00011
  6
DASHED
 62
               7
100
AcDbLine
 10
83.567117179441397
 20
267.80775053875334
 30
0.0
 11
86.567122451854942
 21
271.4077601830046
 31
0.0
  0
LINE
  5
420
100
AcDbEntity
  8
Layer00011
  6
DASHED
 62
               7
100
AcDbLine
 10
91.567122451856761
 20
271.4077601830046
 30
0.0
 11
86.567122451854942
 21
271.4077601830046
 31
0.0
  0
LINE
  5
421
100
AcDbEntity
  8
Layer00011
  6
DASHED
 62
               7
100
AcDbLine
 10
95.567117179441397
 20
267.40776314221296
 30
0.0
 11
95.567117179441397
 21
267.80775476619749
 31
0.0
  0
LINE
  5
422
100
AcDbEntity
  8
Layer00011
  6
DASHED
 62
               7
100
AcDbLine
 10
83.567121406883729
 20
267.80775476619749
 30
0.0
 11
95.567117179441397
 21
267.80775476619749
 31
0.0
  0
LINE
  5
423
100
AcDbEntity
  8
Layer00011
  6
DASHED
 62
               7
100
AcDbLine
 10
95.567117179441397
 20
267.80775476619749
 30
0.0
 11
92.567117179441397
 21
271.4077601830046
 31
0.0
  0
LINE
  5
424
100
AcDbEntity
  8
Layer00011
  6
DASHED
 62
               7
100
AcDbLine
 10
83.567117179441397
 20
267.40775891477062
 30
0.0
 11
95.567117179441397
 21
267.40776314221296
 31
0.0
  0
LINE
  5
425
100
AcDbEntity
  8
Layer00011
  6
DASHED
 62
               7
100
AcDbLine
 10
83.567117179441397
 20
267.40775891477062
 30
0.0
 11
83.567117179441397
 21
267.80775053875334
 31
0.0
  0
LINE
  5
426
100
AcDbEntity
  8
Layer00011
  6
DASHED
 62
               7
100
AcDbLine
 10
86.567122122316817
 20
272.40776067733543
 30
0.0
 11
86.567122451854942
 21
271.4077601830046
 31
0.0
  0
LINE
  5
427
100
AcDbEntity
  8
Layer00011
  6
DASHED
 62
               7
100
AcDbLine
 10
92.567121938125041
 20
272.40776067733498
 30
0.0
 11
92.567122255373164
 21
271.40775409187665
 31
0.0
  0
LINE
  5
428
100
AcDbEntity
  8
Layer00011
  6
DASHED
 62
               7
100
AcDbLine
 10
176.56711190702785
 20
251.40776018300417
 30
0.0
 11
170.56711190702603
 21
251.40776018300417
 31
0.0
  0
LINE
  5
429
100
AcDbEntity
  8
Layer00011
  6
DASHED
 62
               7
100
AcDbLine
 10
179.5671171794414
 20
247.80775053875291
 30
0.0
 11
176.56711190702785
 21
251.40776018300417
 31
0.0
  0
LINE
  5
42A
100
AcDbEntity
  8
Layer00011
  6
DASHED
 62
               7
100
AcDbLine
 10
171.56711190702603
 20
251.40776018300417
 30
0.0
 11
176.56711190702785
 21
251.40776018300417
 31
0.0
  0
LINE
  5
42B
100
AcDbEntity
  8
Layer00011
  6
DASHED
 62
               7
100
AcDbLine
 10
167.5671171794414
 20
247.40776314221253
 30
0.0
 11
167.5671171794414
 21
247.80775476619706
 31
0.0
  0
LINE
  5
42C
100
AcDbEntity
  8
Layer00011
  6
DASHED
 62
               7
100
AcDbLine
 10
179.56711295199906
 20
247.80775476619706
 30
0.0
 11
167.5671171794414
 21
247.80775476619706
 31
0.0
  0
LINE
  5
42D
100
AcDbEntity
  8
Layer00011
  6
DASHED
 62
               7
100
AcDbLine
 10
167.5671171794414
 20
247.80775476619706
 30
0.0
 11
170.5671171794414
 21
251.40776018300417
 31
0.0
  0
LINE
  5
42E
100
AcDbEntity
  8
Layer00011
  6
DASHED
 62
               7
100
AcDbLine
 10
179.5671171794414
 20
247.4077589147702
 30
0.0
 11
167.5671171794414
 21
247.40776314221253
 31
0.0
  0
LINE
  5
42F
100
AcDbEntity
  8
Layer00011
  6
DASHED
 62
               7
100
AcDbLine
 10
179.5671171794414
 20
247.4077589147702
 30
0.0
 11
179.5671171794414
 21
247.80775053875291
 31
0.0
  0
LINE
  5
430
100
AcDbEntity
  8
Layer00011
  6
DASHED
 62
               7
100
AcDbLine
 10
176.56711223656689
 20
252.40776067733637
 30
0.0
 11
176.56711190702785
 21
251.40776018300417
 31
0.0
  0
LINE
  5
431
100
AcDbEntity
  8
Layer00011
  6
DASHED
 62
               7
100
AcDbLine
 10
170.56711242075775
 20
252.40776067733592
 30
0.0
 11
170.56711210351054
 21
251.40775409187623
 31
0.0
  0
LINE
  5
432
100
AcDbEntity
  8
Layer00011
  6
DASHED
 62
               7
100
AcDbLine
 10
194.56711190702876
 20
251.40776018300645
 30
0.0
 11
188.56711190702694
 21
251.40776018300645
 31
0.0
  0
LINE
  5
433
100
AcDbEntity
  8
Layer00011
  6
DASHED
 62
               7
100
AcDbLine
 10
197.56711717944231
 20
247.80775053875519
 30
0.0
 11
194.56711190702876
 21
251.40776018300645
 31
0.0
  0
LINE
  5
434
100
AcDbEntity
  8
Layer00011
  6
DASHED
 62
               7
100
AcDbLine
 10
189.56711190702694
 20
251.40776018300645
 30
0.0
 11
194.56711190702876
 21
251.40776018300645
 31
0.0
  0
LINE
  5
435
100
AcDbEntity
  8
Layer00011
  6
DASHED
 62
               7
100
AcDbLine
 10
185.56711717944231
 20
247.4077631422148
 30
0.0
 11
185.56711717944231
 21
247.80775476619934
 31
0.0
  0
LINE
  5
436
100
AcDbEntity
  8
Layer00011
  6
DASHED
 62
               7
100
AcDbLine
 10
197.56711295199997
 20
247.80775476619934
 30
0.0
 11
185.56711717944231
 21
247.80775476619934
 31
0.0
  0
LINE
  5
437
100
AcDbEntity
  8
Layer00011
  6
DASHED
 62
               7
100
AcDbLine
 10
185.56711717944231
 20
247.80775476619934
 30
0.0
 11
188.56711717944231
 21
251.40776018300645
 31
0.0
  0
LINE
  5
438
100
AcDbEntity
  8
Layer00011
  6
DASHED
 62
               7
100
AcDbLine
 10
197.56711717944231
 20
247.40775891477247
 30
0.0
 11
185.56711717944231
 21
247.4077631422148
 31
0.0
  0
LINE
  5
439
100
AcDbEntity
  8
Layer00011
  6
DASHED
 62
               7
100
AcDbLine
 10
197.56711717944231
 20
247.40775891477247
 30
0.0
 11
197.56711717944231
 21
247.80775053875519
 31
0.0
  0
LINE
  5
43A
100
AcDbEntity
  8
Layer00011
  6
DASHED
 62
               7
100
AcDbLine
 10
194.56711223656689
 20
252.40776067733728
 30
0.0
 11
194.56711190702876
 21
251.40776018300645
 31
0.0
  0
LINE
  5
43B
100
AcDbEntity
  8
Layer00011
  6
DASHED
 62
               7
100
AcDbLine
 10
188.56711242075775
 20
252.40776067733682
 30
0.0
 11
188.56711210351054
 21
251.4077540918785
 31
0.0
  0
LINE
  5
43C
100
AcDbEntity
  8
Layer00011
  6
DASHED
 62
               7
100
AcDbLine
 10
277.2580394494247
 20
190.42606646187156
 30
0.0
 11
277.2580394494247
 21
184.42606646186974
 31
0.0
  0
LINE
  5
43D
100
AcDbEntity
  8
Layer00011
  6
DASHED
 62
               7
100
AcDbLine
 10
293.25804246916903
 20
184.4260717342851
 30
0.0
 11
293.25801809659913
 21
190.42607173447428
 31
0.0
  0
LINE
  5
43E
100
AcDbEntity
  8
Layer00011
  6
DASHED
 62
               7
100
AcDbLine
 10
293.25804246916903
 20
184.4260717342851
 30
0.0
 11
277.25803335829676
 21
184.42606665835334
 31
0.0
  0
LINE
  5
43F
100
AcDbEntity
  8
Layer00011
  6
DASHED
 62
               7
100
AcDbLine
 10
273.65802980517344
 20
193.4260717342851
 30
0.0
 11
277.2580394494247
 21
190.42606646187156
 31
0.0
  0
LINE
  5
440
100
AcDbEntity
  8
Layer00011
  6
DASHED
 62
               7
100
AcDbLine
 10
277.2580394494247
 20
185.42606646186974
 30
0.0
 11
277.2580394494247
 21
190.42606646187156
 31
0.0
  0
LINE
  5
441
100
AcDbEntity
  8
Layer00011
  6
DASHED
 62
               7
100
AcDbLine
 10
293.25804247158464
 20
190.42607173448155
 30
0.0
 11
277.2580394494247
 21
190.42606646187156
 31
0.0
  0
LINE
  5
442
100
AcDbEntity
  8
Layer00011
  6
DASHED
 62
               7
100
AcDbLine
 10
293.25804247158464
 20
184.92607168689315
 30
0.0
 11
277.2580394494247
 21
184.92606665072086
 31
0.0
  0
LINE
  5
443
100
AcDbEntity
  8
Layer00011
  6
DASHED
 62
               7
100
AcDbLine
 10
293.25804241117783
 20
189.92416060941756
 30
0.0
 11
277.2580394494247
 21
189.92599757566782
 31
0.0
  0
LINE
  5
444
100
AcDbEntity
  8
Layer00011
  6
DASHED
 62
               7
100
AcDbLine
 10
258.25803746223517
 20
184.4260717342851
 30
0.0
 11
258.25806183480688
 21
190.42607173447428
 31
0.0
  0
LINE
  5
445
100
AcDbEntity
  8
Layer00011
  6
DASHED
 62
               7
100
AcDbLine
 10
273.25803941426182
 20
189.92588276517577
 30
0.0
 11
258.25803752022819
 21
189.92416060941756
 31
0.0
  0
LINE
  5
446
100
AcDbEntity
  8
Layer00011
  6
DASHED
 62
               7
100
AcDbLine
 10
273.25804082164848
 20
190.42606679140968
 30
0.0
 11
258.25803745981955
 21
190.42607173448155
 31
0.0
  0
LINE
  5
447
100
AcDbEntity
  8
Layer00011
  6
DASHED
 62
               7
100
AcDbLine
 10
273.25804117563109
 20
184.92606696548151
 30
0.0
 11
258.25803745981955
 21
184.92607168689315
 31
0.0
  0
LINE
  5
448
100
AcDbEntity
  8
Layer00011
  6
DASHED
 62
               7
100
AcDbLine
 10
273.25804135177475
 20
184.42606697560055
 30
0.0
 11
258.25803746223517
 21
184.4260717342851
 31
0.0
  0
LINE
  5
449
100
AcDbEntity
  8
Layer00011
  6
DASHED
 62
               7
100
AcDbLine
 10
273.25804240863306
 20
181.4260717342851
 30
0.0
 11
273.65803403261759
 21
181.4260717342851
 31
0.0
  0
LINE
  5
44A
100
AcDbEntity
  8
Layer00011
  6
DASHED
 62
               7
100
AcDbLine
 10
273.65803403261759
 20
193.42606750684277
 30
0.0
 11
273.65803403261759
 21
181.4260717342851
 31
0.0
  0
LINE
  5
44B
100
AcDbEntity
  8
Layer00011
  6
DASHED
 62
               7
100
AcDbLine
 10
273.65803403261759
 20
181.4260717342851
 30
0.0
 11
277.2580394494247
 21
184.4260717342851
 31
0.0
  0
LINE
  5
44C
100
AcDbEntity
  8
Layer00011
  6
DASHED
 62
               7
100
AcDbLine
 10
273.25803818119073
 20
193.4260717342851
 30
0.0
 11
273.25804240863306
 21
181.4260717342851
 31
0.0
  0
LINE
  5
44D
100
AcDbEntity
  8
Layer00011
  6
DASHED
 62
               7
100
AcDbLine
 10
273.25803818119073
 20
193.4260717342851
 30
0.0
 11
273.65802980517344
 21
193.4260717342851
 31
0.0
  0
LINE
  5
44E
100
AcDbEntity
  8
Layer00011
  6
DASHED
 62
               7
100
AcDbLine
 10
277.2580394494247
 20
208.42606646187065
 30
0.0
 11
277.2580394494247
 21
202.42606646186883
 31
0.0
  0
LINE
  5
44F
100
AcDbEntity
  8
Layer00011
  6
DASHED
 62
               7
100
AcDbLine
 10
293.25804246916903
 20
202.42607173428419
 30
0.0
 11
293.25801809659913
 21
208.42607173447337
 31
0.0
  0
LINE
  5
450
100
AcDbEntity
  8
Layer00011
  6
DASHED
 62
               7
100
AcDbLine
 10
293.25804246916903
 20
202.42607173428419
 30
0.0
 11
277.25803335829676
 21
202.42606665835243
 31
0.0
  0
LINE
  5
451
100
AcDbEntity
  8
Layer00011
  6
DASHED
 62
               7
100
AcDbLine
 10
273.65802980517344
 20
211.42607173428419
 30
0.0
 11
277.2580394494247
 21
208.42606646187065
 31
0.0
  0
LINE
  5
452
100
AcDbEntity
  8
Layer00011
  6
DASHED
 62
               7
100
AcDbLine
 10
277.2580394494247
 20
203.42606646186883
 30
0.0
 11
277.2580394494247
 21
208.42606646187065
 31
0.0
  0
LINE
  5
453
100
AcDbEntity
  8
Layer00011
  6
DASHED
 62
               7
100
AcDbLine
 10
293.25804247158464
 20
208.42607173448064
 30
0.0
 11
277.2580394494247
 21
208.42606646187065
 31
0.0
  0
LINE
  5
454
100
AcDbEntity
  8
Layer00011
  6
DASHED
 62
               7
100
AcDbLine
 10
293.25804247158464
 20
202.92607168689224
 30
0.0
 11
277.2580394494247
 21
202.92606665071995
 31
0.0
  0
LINE
  5
455
100
AcDbEntity
  8
Layer00011
  6
DASHED
 62
               7
100
AcDbLine
 10
293.25804241117783
 20
207.92416060941665
 30
0.0
 11
277.2580394494247
 21
207.92599757566691
 31
0.0
  0
LINE
  5
456
100
AcDbEntity
  8
Layer00011
  6
DASHED
 62
               7
100
AcDbLine
 10
258.25803746223517
 20
202.42607173428419
 30
0.0
 11
258.25806183480688
 21
208.42607173447337
 31
0.0
  0
LINE
  5
457
100
AcDbEntity
  8
Layer00011
  6
DASHED
 62
               7
100
AcDbLine
 10
273.25803941426182
 20
207.92588276517486
 30
0.0
 11
258.25803752022819
 21
207.92416060941665
 31
0.0
  0
LINE
  5
458
100
AcDbEntity
  8
Layer00011
  6
DASHED
 62
               7
100
AcDbLine
 10
273.25804082164848
 20
208.42606679140877
 30
0.0
 11
258.25803745981955
 21
208.42607173448064
 31
0.0
  0
LINE
  5
459
100
AcDbEntity
  8
Layer00011
  6
DASHED
 62
               7
100
AcDbLine
 10
273.25804117563109
 20
202.9260669654806
 30
0.0
 11
258.25803745981955
 21
202.92607168689224
 31
0.0
  0
LINE
  5
45A
100
AcDbEntity
  8
Layer00011
  6
DASHED
 62
               7
100
AcDbLine
 10
273.25804135177475
 20
202.42606697559964
 30
0.0
 11
258.25803746223517
 21
202.42607173428419
 31
0.0
  0
LINE
  5
45B
100
AcDbEntity
  8
Layer00011
  6
DASHED
 62
               7
100
AcDbLine
 10
273.25804240863306
 20
199.42607173428419
 30
0.0
 11
273.65803403261759
 21
199.42607173428419
 31
0.0
  0
LINE
  5
45C
100
AcDbEntity
  8
Layer00011
  6
DASHED
 62
               7
100
AcDbLine
 10
273.65803403261759
 20
211.42606750684186
 30
0.0
 11
273.65803403261759
 21
199.42607173428419
 31
0.0
  0
LINE
  5
45D
100
AcDbEntity
  8
Layer00011
  6
DASHED
 62
               7
100
AcDbLine
 10
273.65803403261759
 20
199.42607173428419
 30
0.0
 11
277.2580394494247
 21
202.42607173428419
 31
0.0
  0
LINE
  5
45E
100
AcDbEntity
  8
Layer00011
  6
DASHED
 62
               7
100
AcDbLine
 10
273.25803818119073
 20
211.42607173428419
 30
0.0
 11
273.25804240863306
 21
199.42607173428419
 31
0.0
  0
LINE
  5
45F
100
AcDbEntity
  8
Layer00011
  6
DASHED
 62
               7
100
AcDbLine
 10
273.25803818119073
 20
211.42607173428419
 30
0.0
 11
273.65802980517344
 21
211.42607173428419
 31
0.0
  0
LINE
  5
460
100
AcDbEntity
  8
Layer00011
  6
Continuous
 62
               7
100
AcDbLine
 10
140.56711717944503
 20
262.79451202328676
 30
0.0
 11
143.06711717944503
 21
261.35113635031269
 31
0.0
  0
LINE
  5
461
100
AcDbEntity
  8
Layer00011
  6
Continuous
 62
               7
100
AcDbLine
 10
138.06711717944503
 20
261.35113635031269
 30
0.0
 11
140.56711717944503
 21
262.79451202328676
 31
0.0
  0
LINE
  5
462
100
AcDbEntity
  8
Layer00011
  6
Continuous
 62
               7
100
AcDbLine
 10
138.06711717944503
 20
258.46438500436454
 30
0.0
 11
138.06711717944503
 21
261.35113635031269
 31
0.0
  0
LINE
  5
463
100
AcDbEntity
  8
Layer00011
  6
Continuous
 62
               7
100
AcDbLine
 10
140.56711717944503
 20
257.02100933139047
 30
0.0
 11
138.06711717944503
 21
258.46438500436454
 31
0.0
  0
LINE
  5
464
100
AcDbEntity
  8
Layer00011
  6
Continuous
 62
               7
100
AcDbLine
 10
143.06711717944503
 20
258.46438500436454
 30
0.0
 11
140.56711717944503
 21
257.02100933139047
 31
0.0
  0
LINE
  5
465
100
AcDbEntity
  8
Layer00011
  6
Continuous
 62
               7
100
AcDbLine
 10
143.06711717944503
 20
261.35113635031269
 30
0.0
 11
143.06711717944503
 21
258.46438500436454
 31
0.0
  0
LINE
  5
466
100
AcDbEntity
  8
Layer00011
  6
Continuous
 62
               7
100
AcDbLine
 10
264.31466427078556
 20
156.92607173427919
 30
0.0
 11
267.2014156167337
 21
156.92607173427919
 31
0.0
  0
LINE
  5
467
100
AcDbEntity
  8
Layer00011
  6
Continuous
 62
               7
100
AcDbLine
 10
267.2014156167337
 20
156.92607173427919
 30
0.0
 11
268.64479128970777
 21
154.42607173427874
 31
0.0
  0
LINE
  5
468
100
AcDbEntity
  8
Layer00011
  6
Continuous
 62
               7
100
AcDbLine
 10
268.64479128970777
 20
154.42607173427874
 30
0.0
 11
267.2014156167337
 21
151.92607173427919
 31
0.0
  0
LINE
  5
469
100
AcDbEntity
  8
Layer00011
  6
Continuous
 62
               7
100
AcDbLine
 10
267.2014156167337
 20
151.92607173427919
 30
0.0
 11
264.31466427078556
 21
151.92607173427919
 31
0.0
  0
LINE
  5
46A
100
AcDbEntity
  8
Layer00011
  6
Continuous
 62
               7
100
AcDbLine
 10
264.31466427078556
 20
151.92607173427919
 30
0.0
 11
262.87128859781149
 21
154.42607173427919
 31
0.0
  0
LINE
  5
46B
100
AcDbEntity
  8
Layer00011
  6
Continuous
 62
               7
100
AcDbLine
 10
262.87128859781149
 20
154.42607173427919
 30
0.0
 11
264.31466427078556
 21
156.92607173427919
 31
0.0
  0
CIRCLE
  5
46C
100
AcDbEntity
  8
Layer00011
  6
DASHED
 62
               7
100
AcDbCircle
 10
140.56711717944503
 20
259.90776067733862
 30
0.0
 40
5.0
  0
CIRCLE
  5
46D
100
AcDbEntity
  8
Layer00011
  6
DASHED
 62
               7
100
AcDbCircle
 10
265.75803994375963
 20
154.42607173427919
 30
0.0
 40
5.0
  0
LINE
  5
46E
100
AcDbEntity
  8
Layer00012
  6
Continuous
 62
               3
100
AcDbLine
 10
265.75803994375872
 20
141.9260717342892
 30
0.0
 11
255.37247950926789
 21
123.93775339667437
 31
0.0
  0
LINE
  5
46F
100
AcDbEntity
  8
Layer00012
  6
Continuous
 62
               3
100
AcDbLine
 10
255.37247950926789
 20
123.93775339667437
 30
0.0
 11
255.01954342985513
 21
123.93775339667459
 31
0.0
  0
LINE
  5
470
100
AcDbEntity
  8
Layer00012
  6
Continuous
 62
               3
100
AcDbLine
 10
265.75803994375872
 20
141.9260717342892
 30
0.0
 11
264.73197951378131
 21
139.10699387193145
 31
0.0
  0
LINE
  5
471
100
AcDbEntity
  8
Layer00012
  6
Continuous
 62
               3
100
AcDbLine
 10
265.75803994375872
 20
141.9260717342892
 30
0.0
 11
263.82967711469917
 21
139.62793840493228
 31
0.0
  0
LINE
  5
472
100
AcDbEntity
  8
Layer00012
  6
Continuous
 62
               7
100
AcDbLine
 10
132.5671171794414
 20
232.19377957232669
 30
0.0
 11
132.5671171794414
 21
231.19377957232669
 31
0.0
  0
LINE
  5
473
100
AcDbEntity
  8
Layer00012
  6
Continuous
 62
               7
100
AcDbLine
 10
133.0671171794414
 20
232.69377957232669
 30
0.0
 11
132.5671171794414
 21
232.19377957232669
 31
0.0
  0
LINE
  5
474
100
AcDbEntity
  8
Layer00012
  6
Continuous
 62
               7
100
AcDbLine
 10
148.0671171794414
 20
232.69377957232669
 30
0.0
 11
133.0671171794414
 21
232.69377957232669
 31
0.0
  0
LINE
  5
475
100
AcDbEntity
  8
Layer00012
  6
Continuous
 62
               7
100
AcDbLine
 10
148.5671171794414
 20
232.19377957232669
 30
0.0
 11
148.5671171794414
 21
231.19377957232669
 31
0.0
  0
LINE
  5
476
100
AcDbEntity
  8
Layer00012
  6
Continuous
 62
               7
100
AcDbLine
 10
148.0671171794414
 20
232.69377957232669
 30
0.0
 11
148.5671171794414
 21
232.19377957232669
 31
0.0
  0
LINE
  5
477
100
AcDbEntity
  8
Layer00012
  6
Continuous
 62
               7
100
AcDbLine
 10
132.5671171794414
 20
232.19377957232669
 30
0.0
 11
148.5671171794414
 21
232.19377957232669
 31
0.0
  0
LINE
  5
478
100
AcDbEntity
  8
Layer00012
  6
DASHED
 62
               7
100
AcDbLine
 10
133.5671171794414
 20
183.19377957232669
 30
0.0
 11
132.5671171794414
 21
183.19377957232669
 31
0.0
  0
LINE
  5
479
100
AcDbEntity
  8
Layer00012
  6
DASHED
 62
               7
100
AcDbLine
 10
147.5671171794414
 20
183.19377957232714
 30
0.0
 11
148.56711717944231
 21
183.19377957232714
 31
0.0
  0
LINE
  5
47A
100
AcDbEntity
  8
Layer00012
  6
DASHED
 62
               7
100
AcDbLine
 10
133.5671171794414
 20
163.19377957232669
 30
0.0
 11
132.5671171794414
 21
163.19377957232669
 31
0.0
  0
LINE
  5
47B
100
AcDbEntity
  8
Layer00012
  6
DASHED
 62
               7
100
AcDbLine
 10
147.5671171794414
 20
163.19377957232714
 30
0.0
 11
148.56711717944231
 21
163.19377957232714
 31
0.0
  0
LINE
  5
47C
100
AcDbEntity
  8
Layer00012
  6
DASHED
 62
               7
100
AcDbLine
 10
145.5671171794414
 20
220.69377957232624
 30
0.0
 11
135.5671171794414
 21
220.69377957232624
 31
0.0
  0
LINE
  5
47D
100
AcDbEntity
  8
Layer00012
  6
DASHED
 62
               7
100
AcDbLine
 10
135.5671171794414
 20
220.69377957232624
 30
0.0
 11
136.5671171794414
 21
219.19377957232669
 31
0.0
  0
LINE
  5
47E
100
AcDbEntity
  8
Layer00012
  6
DASHED
 62
               7
100
AcDbLine
 10
145.5671171794414
 20
220.69377957232624
 30
0.0
 11
144.5671171794414
 21
219.19377957232669
 31
0.0
  0
LINE
  5
47F
100
AcDbEntity
  8
Layer00012
  6
DASHED
 62
               7
100
AcDbLine
 10
144.5671171794414
 20
219.19377957232669
 30
0.0
 11
136.5671171794414
 21
219.19377957232669
 31
0.0
  0
LINE
  5
480
100
AcDbEntity
  8
Layer00012
  6
Continuous
 62
               4
100
AcDbLine
 10
384.00992136877846
 20
24.722749378975692
 30
0.0
 11
269.00992136877846
 21
24.722749378975692
 31
0.0
  0
LINE
  5
481
100
AcDbEntity
  8
Layer00012
  6
Continuous
 62
               4
100
AcDbLine
 10
269.00992136877846
 20
59.722749378975692
 30
0.0
 11
269.00992136877846
 21
24.722749378975692
 31
0.0
  0
LINE
  5
482
100
AcDbEntity
  8
Layer00012
  6
Continuous
 62
               4
100
AcDbLine
 10
384.00992136877846
 20
24.722749378975692
 30
0.0
 11
384.00992136877846
 21
166.18454692809897
 31
0.0
  0
LINE
  5
483
100
AcDbEntity
  8
Layer00012
  6
DIVIDE
 62
               4
100
AcDbLine
 10
327.14227045952919
 20
68.055800028324171
 30
0.0
 11
327.14227045952919
 21
87.369046793077956
 31
0.0
  0
LINE
  5
484
100
AcDbEntity
  8
Layer00012
  6
DIVIDE
 62
               4
100
AcDbLine
 10
327.14227045952919
 20
58.79712235842149
 30
0.0
 11
327.14227045952919
 21
49.629216971363036
 31
0.0
  0
LINE
  5
485
100
AcDbEntity
  8
Layer00012
  6
Continuous
 62
               7
100
AcDbLine
 10
339.83992982727375
 20
152.74693285663957
 30
0.0
 11
339.83992982727375
 21
151.44501860397705
 31
0.0
  0
LINE
  5
486
100
AcDbEntity
  8
Layer00012
  6
Continuous
 62
               7
100
AcDbLine
 10
338.55369043871303
 20
152.74693285663002
 30
0.0
 11
338.55369043871303
 21
151.63889835484602
 31
0.0
  0
LINE
  5
487
100
AcDbEntity
  8
Layer00012
  6
Continuous
 62
               7
100
AcDbLine
 10
147.5671171794414
 20
141.19377957232669
 30
0.0
 11
147.5671171794414
 21
138.19377957232669
 31
0.0
  0
ELLIPSE
  5
488
100
AcDbEntity
  8
Layer00012
  6
Continuous
 62
               7
100
AcDbEllipse
 10
339.25402484185486
 20
152.00921764129103
 30
0.0
 11
3.5404853563098779
 21
0.0
 31
0.0
210
0.0
220
0.0
230
1.0
 40
0.6000000000000001
 41
0.0
 42
6.2831853071795862
  0
ELLIPSE
  5
489
100
AcDbEntity
  8
Layer00012
  6
Continuous
 62
               7
100
AcDbEllipse
 10
339.25402484185486
 20
151.38880571372343
 30
0.0
 11
3.5404853563098868
 21
0.0
 31
0.0
210
0.0
220
0.0
230
1.0
 40
0.5999999999999987
 41
2.9950406374661629
 42
0.1465520161236302
  0
TEXT
  5
48A
100
AcDbEntity
  8
Layer00012
 62
               7
100
AcDbText
 10
227.3913146094504
 20
268.95792891300118
 30
0.0
 40
3.5
  1
高 さ 調 整 可 能
 72
               5
 11
257.14131460945043
 21
268.95792891300118
 31
0.0
100
AcDbText
  0
TEXT
  5
48B
100
AcDbEntity
  8
Layer00012
 62
               7
100
AcDbText
 10
232.44957414281848
 20
119.06972080535289
 30
0.0
 40
3.5
  1
防音扉等に最適な軸芯位置
 72
               5
 11
274.44957414281851
 21
119.06972080535289
 31
0.0
100
AcDbText
  0
TEXT
  5
48C
100
AcDbEntity
  8
Layer00012
 62
               7
100
AcDbText
 10
391.84131363078939
 20
6.0045980469800782
 30
0.0
 40
5.0
  1
３６
 72
               5
 11
401.84131363078939
 21
6.0045980469800782
 31
0.0
100
AcDbText
  0
ENDSEC
  0
SECTION
  2
OBJECTS
  0
DICTIONARY
  5
19
100
AcDbDictionary
  3
ACAD_GROUP
350
1A
  3
ACAD_MLINESTYLE
350
1B
  3
DWGPROPS
350
48D
  0
DICTIONARY
  5
1A
102
{ACAD_REACTORS
330
19
102
}
100
AcDbDictionary
  0
DICTIONARY
  5
1B
102
{ACAD_REACTORS
330
19
102
}
100
AcDbDictionary
  3
STANDARD
350
1C
  0
MLINESTYLE
  5
1C
102
{ACAD_REACTORS
330
1B
102
}
100
AcDbMlineStyle
  2
Standard
 70
               0
  3

 62
               0
 51
90.0
 52
90.0
 71
               2
 49
0.5
 62
             256
  6
ByLayer
 49
-0.5
 62
             256
  6
ByLayer
  0
XRECORD
  5
48D
100
AcDbXrecord
  1
DWGPROPS COOKIE
  2

  3

  4

  6

  7

  0
ENDSEC
  0
EOF
